ISO-10303-21;
HEADER;
FILE_DESCRIPTION (( 'STEP AP203' ),
    '1' );
FILE_NAME ('4935-E0W.STEP',
    '2015-07-13T15:20:26',
    ( 'admin' ),
    ( '' ),
    'SwSTEP 2.0',
    'SolidWorks 2014',
    '' );
FILE_SCHEMA (( 'CONFIG_CONTROL_DESIGN' ));
ENDSEC;

DATA;
#1 = PRODUCT_RELATED_PRODUCT_CATEGORY ( 'detail', '', ( #362 ) ) ;
#2 = CARTESIAN_POINT ( 'NONE',  ( 0.0000000000000000000, 0.0000000000000000000, -584.4282604166206700 ) ) ;
#3 = ADVANCED_FACE ( 'NONE', ( #103 ), #81, .F. ) ;
#4 = LOCAL_TIME ( 11, 20, 26.00000000000000000, #82 ) ;
#5 = DIRECTION ( 'NONE',  ( -1.000000000000000000, 0.0000000000000000000, 0.0000000000000000000 ) ) ;
#6 = DIRECTION ( 'NONE',  ( -0.0000000000000000000, -0.0000000000000000000, 1.000000000000000000 ) ) ;
#7 = DIRECTION ( 'NONE',  ( -0.0000000000000000000, -0.0000000000000000000, 1.000000000000000000 ) ) ;
#8 = DIRECTION ( 'NONE',  ( 1.000000000000000000, 0.0000000000000000000, 0.0000000000000000000 ) ) ;
#9 = DIRECTION ( 'NONE',  ( 0.0000000000000000000, 1.000000000000000000, 0.0000000000000000000 ) ) ;
#10 = CARTESIAN_POINT ( 'NONE',  ( -3.080372959365908300E-015, -25.15315404825770100, 0.8479728450513646100 ) ) ;
#11 = CIRCLE ( 'NONE', #87, 25.39999999999999900 ) ;
#12 = ORIENTED_EDGE ( 'NONE', *, *, #294, .F. ) ;
#13 = AXIS2_PLACEMENT_3D ( 'NONE', #179, #6, #210 ) ;
#14 = DIRECTION ( 'NONE',  ( -1.224646799147353200E-016, -1.000000000000000000, 0.0000000000000000000 ) ) ;
#15 = ORIENTED_EDGE ( 'NONE', *, *, #165, .T. ) ;
#16 = DIRECTION ( 'NONE',  ( 0.7223668110366767700, 0.0000000000000000000, 0.6915100796898785400 ) ) ;
#17 = CALENDAR_DATE ( 2015, 13, 7 ) ;
#18 = CARTESIAN_POINT ( 'NONE',  ( -25.39999999999999900, 3.110602869834276900E-015, 0.5598012458941370500 ) ) ;
#19 = CARTESIAN_POINT ( 'NONE',  ( -25.39999999999999900, 3.110602869834276900E-015, -2.532595084195038600 ) ) ;
#20 = ORIENTED_EDGE ( 'NONE', *, *, #132, .T. ) ;
#21 = DIRECTION ( 'NONE',  ( 0.0000000000000000000, 0.0000000000000000000, 1.000000000000000000 ) ) ;
#22 = PERSON_AND_ORGANIZATION_ROLE ( 'design_supplier' ) ;
#23 = EDGE_CURVE ( 'NONE', #56, #25, #36, .T. ) ;
#24 = LINE ( 'NONE', #160, #85 ) ;
#25 = VERTEX_POINT ( 'NONE', #45 ) ;
#26 = EDGE_LOOP ( 'NONE', ( #219, #142, #122, #170, #271 ) ) ;
#27 = VERTEX_POINT ( 'NONE', #220 ) ;
#28 = PERSON_AND_ORGANIZATION ( #231, #141 ) ;
#29 = VERTEX_POINT ( 'NONE', #18 ) ;
#30 = ORIENTED_EDGE ( 'NONE', *, *, #23, .T. ) ;
#31 = CIRCLE ( 'NONE', #13, 25.15315404825759100 ) ;
#32 = AXIS2_PLACEMENT_3D ( 'NONE', #93, #38, #128 ) ;
#33 = COORDINATED_UNIVERSAL_TIME_OFFSET ( 5, 0, .BEHIND. ) ;
#34 = DIRECTION ( 'NONE',  ( 0.0000000000000000000, -1.000000000000000000, 0.0000000000000000000 ) ) ;
#35 = ORIENTED_EDGE ( 'NONE', *, *, #69, .T. ) ;
#36 = LINE ( 'NONE', #272, #326 ) ;
#37 = DIRECTION ( 'NONE',  ( -0.0000000000000000000, -0.0000000000000000000, 1.000000000000000000 ) ) ;
#38 = DIRECTION ( 'NONE',  ( 0.0000000000000000000, 0.0000000000000000000, -1.000000000000000000 ) ) ;
#39 = CARTESIAN_POINT ( 'NONE',  ( 0.0000000000000000000, 0.0000000000000000000, -584.4282604166206700 ) ) ;
#40 = FACE_OUTER_BOUND ( 'NONE', #158, .T. ) ;
#41 = CARTESIAN_POINT ( 'NONE',  ( 0.0000000000000000000, -25.15018433667942000, -2.771739583379298400 ) ) ;
#42 = EDGE_CURVE ( 'NONE', #314, #56, #227, .T. ) ;
#43 = LOCAL_TIME ( 11, 20, 26.00000000000000000, #120 ) ;
#44 = ORIENTED_EDGE ( 'NONE', *, *, #112, .T. ) ;
#45 = CARTESIAN_POINT ( 'NONE',  ( 25.39999999999999900, 0.0000000000000000000, -2.532595084195038600 ) ) ;
#46 = AXIS2_PLACEMENT_3D ( 'NONE', #246, #321, #192 ) ;
#47 = MECHANICAL_CONTEXT ( 'NONE', #193, 'mechanical' ) ;
#48 = FACE_OUTER_BOUND ( 'NONE', #218, .T. ) ;
#49 = PERSON_AND_ORGANIZATION_ROLE ( 'classification_officer' ) ;
#50 = EDGE_CURVE ( 'NONE', #73, #27, #66, .T. ) ;
#51 = AXIS2_PLACEMENT_3D ( 'NONE', #316, #152, #345 ) ;
#52 = CC_DESIGN_PERSON_AND_ORGANIZATION_ASSIGNMENT ( #60, #248, ( #362 ) ) ;
#53 = CALENDAR_DATE ( 2015, 13, 7 ) ;
#54 = FACE_OUTER_BOUND ( 'NONE', #26, .T. ) ;
#55 = EDGE_LOOP ( 'NONE', ( #270, #281, #20, #89 ) ) ;
#56 = VERTEX_POINT ( 'NONE', #283 ) ;
#57 = DIRECTION ( 'NONE',  ( 0.0000000000000000000, 0.0000000000000000000, -1.000000000000000000 ) ) ;
#58 = EDGE_CURVE ( 'NONE', #73, #135, #253, .T. ) ;
#59 = VECTOR ( 'NONE', #37, 1000.000000000000000 ) ;
#60 = PERSON_AND_ORGANIZATION ( #231, #141 ) ;
#61 = ORIENTED_EDGE ( 'NONE', *, *, #329, .T. ) ;
#62 = ADVANCED_FACE ( 'NONE', ( #54 ), #323, .T. ) ;
#63 = AXIS2_PLACEMENT_3D ( 'NONE', #39, #240, #67 ) ;
#64 = DIRECTION ( 'NONE',  ( 0.0000000000000000000, 0.0000000000000000000, -1.000000000000000000 ) ) ;
#65 = CARTESIAN_POINT ( 'NONE',  ( 0.0000000000000000000, 0.0000000000000000000, 0.8479728450513923700 ) ) ;
#66 = CIRCLE ( 'NONE', #63, 582.2000000000000500 ) ;
#67 = DIRECTION ( 'NONE',  ( 0.0000000000000000000, 0.0000000000000000000, 1.000000000000000000 ) ) ;
#68 = CARTESIAN_POINT ( 'NONE',  ( 0.0000000000000000000, 0.0000000000000000000, 0.8479728450513646100 ) ) ;
#69 = EDGE_CURVE ( 'NONE', #105, #86, #295, .T. ) ;
#70 = CARTESIAN_POINT ( 'NONE',  ( -25.15315404825759100, 0.0000000000000000000, 0.8479728450513646100 ) ) ;
#71 = AXIS2_PLACEMENT_3D ( 'NONE', #150, #148, #343 ) ;
#72 = PRODUCT_DEFINITION ( 'UNKNOWN', '', #168, #225 ) ;
#73 = VERTEX_POINT ( 'NONE', #41 ) ;
#74 = CIRCLE ( 'NONE', #274, 25.39999999999999900 ) ;
#75 = CARTESIAN_POINT ( 'NONE',  ( 0.0000000000000000000, 0.0000000000000000000, -2.532595084195038600 ) ) ;
#76 = ORIENTED_EDGE ( 'NONE', *, *, #58, .F. ) ;
#77 = APPLICATION_CONTEXT ( 'configuration controlled 3d designs of mechanical parts and assemblies' ) ;
#78 = APPROVAL_STATUS ( 'not_yet_approved' ) ;
#79 = EDGE_CURVE ( 'NONE', #314, #27, #338, .T. ) ;
#80 = ORIENTED_EDGE ( 'NONE', *, *, #243, .T. ) ;
#81 = SPHERICAL_SURFACE ( 'NONE', #46, 582.2000000000000500 ) ;
#82 = COORDINATED_UNIVERSAL_TIME_OFFSET ( 5, 0, .BEHIND. ) ;
#83 = AXIS2_PLACEMENT_3D ( 'NONE', #292, #130, #317 ) ;
#84 = EDGE_CURVE ( 'NONE', #367, #29, #157, .T. ) ;
#85 = VECTOR ( 'NONE', #356, 1000.000000000000000 ) ;
#86 = VERTEX_POINT ( 'NONE', #10 ) ;
#87 = AXIS2_PLACEMENT_3D ( 'NONE', #75, #273, #107 ) ;
#88 = APPROVAL ( #108, 'UNSPECIFIED' ) ;
#89 = ORIENTED_EDGE ( 'NONE', *, *, #200, .T. ) ;
#90 = LOCAL_TIME ( 11, 20, 26.00000000000000000, #169 ) ;
#91 = CARTESIAN_POINT ( 'NONE',  ( 25.15315404825760500, 3.080372959365896500E-015, 0.8479728450513923700 ) ) ;
#92 = ADVANCED_FACE ( 'NONE', ( #334 ), #139, .T. ) ;
#93 = CARTESIAN_POINT ( 'NONE',  ( 0.0000000000000000000, 0.0000000000000000000, 0.8479728450513923700 ) ) ;
#94 = DIRECTION ( 'NONE',  ( -0.0000000000000000000, -0.0000000000000000000, 1.000000000000000000 ) ) ;
#95 = DIRECTION ( 'NONE',  ( -0.0000000000000000000, -0.0000000000000000000, 1.000000000000000000 ) ) ;
#96 = DIRECTION ( 'NONE',  ( -1.000000000000000000, 0.0000000000000000000, 0.0000000000000000000 ) ) ;
#97 = MANIFOLD_SOLID_BREP ( '4935-001-1-solid1', #229 ) ;
#98 = ORIENTED_EDGE ( 'NONE', *, *, #50, .T. ) ;
#99 = EDGE_LOOP ( 'NONE', ( #167, #304, #104, #98 ) ) ;
#100 = ORIENTED_EDGE ( 'NONE', *, *, #84, .T. ) ;
#101 = CYLINDRICAL_SURFACE ( 'NONE', #284, 25.39999999999999900 ) ;
#102 = APPROVAL_DATE_TIME ( #173, #189 ) ;
#103 = FACE_OUTER_BOUND ( 'NONE', #99, .T. ) ;
#104 = ORIENTED_EDGE ( 'NONE', *, *, #226, .T. ) ;
#105 = VERTEX_POINT ( 'NONE', #70 ) ;
#106 = AXIS2_PLACEMENT_3D ( 'NONE', #212, #95, #154 ) ;
#107 = DIRECTION ( 'NONE',  ( 1.000000000000000000, 0.0000000000000000000, 0.0000000000000000000 ) ) ;
#108 = APPROVAL_STATUS ( 'not_yet_approved' ) ;
#109 = FACE_OUTER_BOUND ( 'NONE', #117, .T. ) ;
#110 = CIRCLE ( 'NONE', #254, 25.39999999999999900 ) ;
#111 = FACE_OUTER_BOUND ( 'NONE', #55, .T. ) ;
#112 = EDGE_CURVE ( 'NONE', #86, #121, #198, .T. ) ;
#113 =( GEOMETRIC_REPRESENTATION_CONTEXT ( 3 ) GLOBAL_UNCERTAINTY_ASSIGNED_CONTEXT ( ( #331 ) ) GLOBAL_UNIT_ASSIGNED_CONTEXT ( ( #181, #299, #138 ) ) REPRESENTATION_CONTEXT ( 'NONE', 'WORKASPACE' ) );
#114 = CC_DESIGN_APPROVAL ( #88, ( #72 ) ) ;
#115 = APPROVAL_PERSON_ORGANIZATION ( #190, #189, #358 ) ;
#116 = ORIENTED_EDGE ( 'NONE', *, *, #144, .T. ) ;
#117 = EDGE_LOOP ( 'NONE', ( #172, #35, #44, #123 ) ) ;
#118 = VECTOR ( 'NONE', #347, 1000.000000000000000 ) ;
#119 = CIRCLE ( 'NONE', #302, 25.15315404825759100 ) ;
#120 = COORDINATED_UNIVERSAL_TIME_OFFSET ( 5, 0, .BEHIND. ) ;
#121 = VERTEX_POINT ( 'NONE', #293 ) ;
#122 = ORIENTED_EDGE ( 'NONE', *, *, #363, .F. ) ;
#123 = ORIENTED_EDGE ( 'NONE', *, *, #144, .F. ) ;
#124 = ADVANCED_FACE ( 'NONE', ( #166 ), #277, .T. ) ;
#125 = CARTESIAN_POINT ( 'NONE',  ( 0.0000000000000000000, 25.15315404825770100, 0.8479728450513646100 ) ) ;
#126 = AXIS2_PLACEMENT_3D ( 'NONE', #68, #266, #96 ) ;
#127 = DIRECTION ( 'NONE',  ( 1.000000000000000000, 0.0000000000000000000, 0.0000000000000000000 ) ) ;
#128 = DIRECTION ( 'NONE',  ( -1.000000000000000000, 0.0000000000000000000, 0.0000000000000000000 ) ) ;
#129 = DIRECTION ( 'NONE',  ( 0.0000000000000000000, 0.0000000000000000000, -1.000000000000000000 ) ) ;
#130 = DIRECTION ( 'NONE',  ( 0.0000000000000000000, 0.0000000000000000000, -1.000000000000000000 ) ) ;
#131 = CARTESIAN_POINT ( 'NONE',  ( 0.0000000000000000000, 0.0000000000000000000, -162.6282604166207200 ) ) ;
#132 = EDGE_CURVE ( 'NONE', #25, #349, #359, .T. ) ;
#133 = CC_DESIGN_PERSON_AND_ORGANIZATION_ASSIGNMENT ( #196, #140, ( #72 ) ) ;
#134 = LOCAL_TIME ( 11, 20, 26.00000000000000000, #202 ) ;
#135 = VERTEX_POINT ( 'NONE', #364 ) ;
#136 = ORIENTED_EDGE ( 'NONE', *, *, #69, .F. ) ;
#137 = DIRECTION ( 'NONE',  ( 0.0000000000000000000, 1.000000000000000000, 0.0000000000000000000 ) ) ;
#138 =( NAMED_UNIT ( * ) SI_UNIT ( $, .STERADIAN. ) SOLID_ANGLE_UNIT ( ) );
#139 = CONICAL_SURFACE ( 'NONE', #161, 25.39999999999999900, 0.8072188989740048900 ) ;
#140 = PERSON_AND_ORGANIZATION_ROLE ( 'creator' ) ;
#141 = ORGANIZATION ( 'UNSPECIFIED', 'UNSPECIFIED', '' ) ;
#142 = ORIENTED_EDGE ( 'NONE', *, *, #348, .T. ) ;
#143 = AXIS2_PLACEMENT_3D ( 'NONE', #156, #351, #186 ) ;
#144 = EDGE_CURVE ( 'NONE', #286, #121, #191, .T. ) ;
#145 = CIRCLE ( 'NONE', #267, 25.15018433667657400 ) ;
#146 = CC_DESIGN_DATE_AND_TIME_ASSIGNMENT ( #259, #327, ( #72 ) ) ;
#147 = ORIENTED_EDGE ( 'NONE', *, *, #50, .F. ) ;
#148 = DIRECTION ( 'NONE',  ( -0.0000000000000000000, -0.0000000000000000000, 1.000000000000000000 ) ) ;
#149 = APPROVAL_DATE_TIME ( #230, #311 ) ;
#150 = CARTESIAN_POINT ( 'NONE',  ( 0.0000000000000000000, 0.0000000000000000000, 2.771739583379310400 ) ) ;
#151 = DIRECTION ( 'NONE',  ( -1.000000000000000000, 0.0000000000000000000, 0.0000000000000000000 ) ) ;
#152 = DIRECTION ( 'NONE',  ( 0.0000000000000000000, 0.0000000000000000000, -1.000000000000000000 ) ) ;
#153 = CARTESIAN_POINT ( 'NONE',  ( 0.0000000000000000000, 0.0000000000000000000, 0.5598012458941370500 ) ) ;
#154 = DIRECTION ( 'NONE',  ( 1.000000000000000000, 0.0000000000000000000, 0.0000000000000000000 ) ) ;
#155 = CARTESIAN_POINT ( 'NONE',  ( 0.0000000000000000000, 0.0000000000000000000, -2.771739583379312100 ) ) ;
#156 = CARTESIAN_POINT ( 'NONE',  ( 0.0000000000000000000, 0.0000000000000000000, -584.4282604166206700 ) ) ;
#157 = LINE ( 'NONE', #319, #118 ) ;
#158 = EDGE_LOOP ( 'NONE', ( #197, #61, #175, #147 ) ) ;
#159 = APPROVAL_PERSON_ORGANIZATION ( #234, #311, #276 ) ;
#160 = CARTESIAN_POINT ( 'NONE',  ( -25.39999999999999900, 3.110602869834276100E-015, -2.532595084195038200 ) ) ;
#161 = AXIS2_PLACEMENT_3D ( 'NONE', #214, #242, #183 ) ;
#162 = APPLICATION_PROTOCOL_DEFINITION ( 'international standard', 'config_control_design', 1994, #193 ) ;
#163 = ORIENTED_EDGE ( 'NONE', *, *, #200, .F. ) ;
#164 = APPROVAL_STATUS ( 'not_yet_approved' ) ;
#165 = EDGE_CURVE ( 'NONE', #86, #177, #255, .T. ) ;
#166 = FACE_OUTER_BOUND ( 'NONE', #324, .T. ) ;
#167 = ORIENTED_EDGE ( 'NONE', *, *, #79, .F. ) ;
#168 = PRODUCT_DEFINITION_FORMATION_WITH_SPECIFIED_SOURCE ( 'ANY', '', #362, .NOT_KNOWN. ) ;
#169 = COORDINATED_UNIVERSAL_TIME_OFFSET ( 5, 0, .BEHIND. ) ;
#170 = ORIENTED_EDGE ( 'NONE', *, *, #23, .F. ) ;
#171 = CIRCLE ( 'NONE', #51, 25.15018433667657400 ) ;
#172 = ORIENTED_EDGE ( 'NONE', *, *, #306, .T. ) ;
#173 = DATE_AND_TIME ( #251, #322 ) ;
#174 = DIRECTION ( 'NONE',  ( -1.000000000000000000, 0.0000000000000000000, 0.0000000000000000000 ) ) ;
#175 = ORIENTED_EDGE ( 'NONE', *, *, #79, .T. ) ;
#176 = DIRECTION ( 'NONE',  ( -0.0000000000000000000, -0.0000000000000000000, 1.000000000000000000 ) ) ;
#177 = VERTEX_POINT ( 'NONE', #344 ) ;
#178 = AXIS2_PLACEMENT_3D ( 'NONE', #352, #188, #14 ) ;
#179 = CARTESIAN_POINT ( 'NONE',  ( 0.0000000000000000000, 0.0000000000000000000, 0.8479728450513646100 ) ) ;
#180 = CARTESIAN_POINT ( 'NONE',  ( 0.0000000000000000000, 0.0000000000000000000, 0.8479728450513646100 ) ) ;
#181 =( LENGTH_UNIT ( ) NAMED_UNIT ( * ) SI_UNIT ( .MILLI., .METRE. ) );
#182 = DIRECTION ( 'NONE',  ( -1.000000000000000000, 0.0000000000000000000, 0.0000000000000000000 ) ) ;
#183 = DIRECTION ( 'NONE',  ( 1.000000000000000000, 0.0000000000000000000, 0.0000000000000000000 ) ) ;
#184 = CIRCLE ( 'NONE', #360, 25.39999999999999900 ) ;
#185 = DIRECTION ( 'NONE',  ( -1.000000000000000000, 0.0000000000000000000, 0.0000000000000000000 ) ) ;
#186 = DIRECTION ( 'NONE',  ( 1.224646799147353200E-016, 1.000000000000000000, 0.0000000000000000000 ) ) ;
#187 = EDGE_CURVE ( 'NONE', #367, #25, #110, .T. ) ;
#188 = DIRECTION ( 'NONE',  ( -1.000000000000000000, 1.224646799147353200E-016, 0.0000000000000000000 ) ) ;
#189 = APPROVAL ( #164, 'UNSPECIFIED' ) ;
#190 = PERSON_AND_ORGANIZATION ( #231, #141 ) ;
#191 = CIRCLE ( 'NONE', #199, 165.3999999999999800 ) ;
#192 = DIRECTION ( 'NONE',  ( 0.0000000000000000000, -1.000000000000000000, 0.0000000000000000000 ) ) ;
#193 = APPLICATION_CONTEXT ( 'configuration controlled 3d designs of mechanical parts and assemblies' ) ;
#194 = FACE_OUTER_BOUND ( 'NONE', #252, .T. ) ;
#195 = PERSON_AND_ORGANIZATION_ROLE ( 'creator' ) ;
#196 = PERSON_AND_ORGANIZATION ( #231, #141 ) ;
#197 = ORIENTED_EDGE ( 'NONE', *, *, #58, .T. ) ;
#198 = CIRCLE ( 'NONE', #178, 165.4000000000000100 ) ;
#199 = AXIS2_PLACEMENT_3D ( 'NONE', #289, #127, #315 ) ;
#200 = EDGE_CURVE ( 'NONE', #349, #29, #74, .T. ) ;
#201 = CARTESIAN_POINT ( 'NONE',  ( 25.39999999999999900, 0.0000000000000000000, 2.771739583379310400 ) ) ;
#202 = COORDINATED_UNIVERSAL_TIME_OFFSET ( 5, 0, .BEHIND. ) ;
#203 = CC_DESIGN_APPROVAL ( #189, ( #168 ) ) ;
#204 = ADVANCED_FACE ( 'NONE', ( #216 ), #264, .T. ) ;
#205 = ORIENTED_EDGE ( 'NONE', *, *, #132, .F. ) ;
#206 = ORIENTED_EDGE ( 'NONE', *, *, #363, .T. ) ;
#207 = DIRECTION ( 'NONE',  ( 1.000000000000000000, 0.0000000000000000000, 0.0000000000000000000 ) ) ;
#208 = ADVANCED_FACE ( 'NONE', ( #48 ), #101, .T. ) ;
#209 = CARTESIAN_POINT ( 'NONE',  ( -25.15315404825760500, 0.0000000000000000000, 0.8479728450513923700 ) ) ;
#210 = DIRECTION ( 'NONE',  ( -1.000000000000000000, 0.0000000000000000000, 0.0000000000000000000 ) ) ;
#211 = DIRECTION ( 'NONE',  ( -1.000000000000000000, 0.0000000000000000000, 0.0000000000000000000 ) ) ;
#212 = CARTESIAN_POINT ( 'NONE',  ( 0.0000000000000000000, 0.0000000000000000000, -2.532595084195038200 ) ) ;
#213 = CARTESIAN_POINT ( 'NONE',  ( 0.0000000000000000000, 0.0000000000000000000, 2.771739583379310400 ) ) ;
#214 = CARTESIAN_POINT ( 'NONE',  ( 0.0000000000000000000, 0.0000000000000000000, -2.532595084195038200 ) ) ;
#215 = CARTESIAN_POINT ( 'NONE',  ( 0.0000000000000000000, 0.0000000000000000000, -162.6282604166207200 ) ) ;
#216 = FACE_OUTER_BOUND ( 'NONE', #296, .T. ) ;
#217 = SHAPE_DEFINITION_REPRESENTATION ( #328, #357 ) ;
#218 = EDGE_LOOP ( 'NONE', ( #206, #100, #308, #205 ) ) ;
#219 = ORIENTED_EDGE ( 'NONE', *, *, #329, .F. ) ;
#220 = CARTESIAN_POINT ( 'NONE',  ( 0.0000000000000000000, -3.564946832317945600E-014, -2.228260416620608800 ) ) ;
#221 = CARTESIAN_POINT ( 'NONE',  ( 0.0000000000000000000, 0.0000000000000000000, 0.0000000000000000000 ) ) ;
#222 = AXIS2_PLACEMENT_3D ( 'NONE', #215, #268, #137 ) ;
#223 = DIRECTION ( 'NONE',  ( 1.000000000000000000, 0.0000000000000000000, 0.0000000000000000000 ) ) ;
#224 = SECURITY_CLASSIFICATION_LEVEL ( 'unclassified' ) ;
#225 = DESIGN_CONTEXT ( 'detailed design', #77, 'design' ) ;
#226 = EDGE_CURVE ( 'NONE', #56, #73, #145, .T. ) ;
#227 = CIRCLE ( 'NONE', #309, 25.15018433667657400 ) ;
#228 = CC_DESIGN_PERSON_AND_ORGANIZATION_ASSIGNMENT ( #28, #195, ( #168 ) ) ;
#229 = CLOSED_SHELL ( 'NONE', ( #204, #62, #235, #208, #233, #124, #313, #3, #92, #341 ) ) ;
#230 = DATE_AND_TIME ( #298, #4 ) ;
#231 = PERSON ( 'UNSPECIFIED', 'UNSPECIFIED', 'UNSPECIFIED', ('UNSPECIFIED'), ('UNSPECIFIED'), ('UNSPECIFIED') ) ;
#232 = CARTESIAN_POINT ( 'NONE',  ( 0.0000000000000000000, 0.0000000000000000000, -2.771739583379312100 ) ) ;
#233 = ADVANCED_FACE ( 'NONE', ( #109 ), #282, .T. ) ;
#234 = PERSON_AND_ORGANIZATION ( #231, #141 ) ;
#235 = ADVANCED_FACE ( 'NONE', ( #40 ), #335, .F. ) ;
#236 = CARTESIAN_POINT ( 'NONE',  ( 0.0000000000000000000, 0.0000000000000000000, 0.5598012458941370500 ) ) ;
#237 = EDGE_LOOP ( 'NONE', ( #340, #76, #366, #30, #260 ) ) ;
#238 = AXIS2_PLACEMENT_3D ( 'NONE', #180, #7, #211 ) ;
#239 = CARTESIAN_POINT ( 'NONE',  ( 3.080009274588035000E-015, 25.15018433667942000, -2.771739583379298400 ) ) ;
#240 = DIRECTION ( 'NONE',  ( -1.000000000000000000, -0.0000000000000000000, -0.0000000000000000000 ) ) ;
#241 = DIRECTION ( 'NONE',  ( -0.0000000000000000000, -0.0000000000000000000, 1.000000000000000000 ) ) ;
#242 = DIRECTION ( 'NONE',  ( -0.0000000000000000000, -0.0000000000000000000, 1.000000000000000000 ) ) ;
#243 = EDGE_CURVE ( 'NONE', #177, #349, #330, .T. ) ;
#244 = CC_DESIGN_PERSON_AND_ORGANIZATION_ASSIGNMENT ( #312, #22, ( #168 ) ) ;
#245 = PERSON_AND_ORGANIZATION ( #231, #141 ) ;
#246 = CARTESIAN_POINT ( 'NONE',  ( 0.0000000000000000000, 0.0000000000000000000, -584.4282604166206700 ) ) ;
#247 = ORIENTED_EDGE ( 'NONE', *, *, #243, .F. ) ;
#248 = PERSON_AND_ORGANIZATION_ROLE ( 'design_owner' ) ;
#249 = DATE_TIME_ROLE ( 'classification_date' ) ;
#250 = VECTOR ( 'NONE', #288, 1000.000000000000000 ) ;
#251 = CALENDAR_DATE ( 2015, 13, 7 ) ;
#252 = EDGE_LOOP ( 'NONE', ( #247, #365, #136, #339, #163 ) ) ;
#253 = CIRCLE ( 'NONE', #83, 25.15018433667657400 ) ;
#254 = AXIS2_PLACEMENT_3D ( 'NONE', #263, #94, #291 ) ;
#255 = CIRCLE ( 'NONE', #238, 25.15315404825759100 ) ;
#256 = VECTOR ( 'NONE', #287, 1000.000000000000000 ) ;
#257 = EDGE_CURVE ( 'NONE', #177, #286, #119, .T. ) ;
#258 = SECURITY_CLASSIFICATION ( '', '', #224 ) ;
#259 = DATE_AND_TIME ( #332, #43 ) ;
#260 = ORIENTED_EDGE ( 'NONE', *, *, #187, .F. ) ;
#261 = ORIENTED_EDGE ( 'NONE', *, *, #112, .F. ) ;
#262 = DIRECTION ( 'NONE',  ( -1.000000000000000000, 0.0000000000000000000, 0.0000000000000000000 ) ) ;
#263 = CARTESIAN_POINT ( 'NONE',  ( 0.0000000000000000000, 0.0000000000000000000, -2.532595084195038600 ) ) ;
#264 = CONICAL_SURFACE ( 'NONE', #290, 25.15315404825760500, 0.7083095640053727000 ) ;
#265 = DIRECTION ( 'NONE',  ( -1.000000000000000000, 0.0000000000000000000, 0.0000000000000000000 ) ) ;
#266 = DIRECTION ( 'NONE',  ( -0.0000000000000000000, -0.0000000000000000000, 1.000000000000000000 ) ) ;
#267 = AXIS2_PLACEMENT_3D ( 'NONE', #155, #350, #185 ) ;
#268 = DIRECTION ( 'NONE',  ( -1.000000000000000000, 0.0000000000000000000, 0.0000000000000000000 ) ) ;
#269 = APPROVAL_DATE_TIME ( #337, #88 ) ;
#270 = ORIENTED_EDGE ( 'NONE', *, *, #84, .F. ) ;
#271 = ORIENTED_EDGE ( 'NONE', *, *, #42, .F. ) ;
#272 = CARTESIAN_POINT ( 'NONE',  ( 25.39999999999999900, 0.0000000000000000000, -2.532595084195038200 ) ) ;
#273 = DIRECTION ( 'NONE',  ( -0.0000000000000000000, -0.0000000000000000000, 1.000000000000000000 ) ) ;
#274 = AXIS2_PLACEMENT_3D ( 'NONE', #153, #346, #182 ) ;
#275 = APPLICATION_PROTOCOL_DEFINITION ( 'international standard', 'config_control_design', 1994, #77 ) ;
#276 = APPROVAL_ROLE ( '' ) ;
#277 = SPHERICAL_SURFACE ( 'NONE', #222, 165.4000000000000100 ) ;
#278 = EDGE_CURVE ( 'NONE', #29, #349, #184, .T. ) ;
#279 = APPROVAL_PERSON_ORGANIZATION ( #353, #88, #300 ) ;
#280 = CC_DESIGN_PERSON_AND_ORGANIZATION_ASSIGNMENT ( #245, #49, ( #258 ) ) ;
#281 = ORIENTED_EDGE ( 'NONE', *, *, #187, .T. ) ;
#282 = SPHERICAL_SURFACE ( 'NONE', #320, 165.4000000000000100 ) ;
#283 = CARTESIAN_POINT ( 'NONE',  ( 25.15018433667657400, 0.0000000000000000000, -2.771739583379312100 ) ) ;
#284 = AXIS2_PLACEMENT_3D ( 'NONE', #213, #241, #8 ) ;
#285 = ORIENTED_EDGE ( 'NONE', *, *, #306, .F. ) ;
#286 = VERTEX_POINT ( 'NONE', #125 ) ;
#287 = DIRECTION ( 'NONE',  ( 0.6505508780886113400, 7.966950505337177600E-017, -0.7594626751974956600 ) ) ;
#288 = DIRECTION ( 'NONE',  ( -0.6505508780886113400, 0.0000000000000000000, -0.7594626751974956600 ) ) ;
#289 = CARTESIAN_POINT ( 'NONE',  ( 0.0000000000000000000, 0.0000000000000000000, -162.6282604166207200 ) ) ;
#290 = AXIS2_PLACEMENT_3D ( 'NONE', #65, #129, #151 ) ;
#291 = DIRECTION ( 'NONE',  ( 1.000000000000000000, 0.0000000000000000000, 0.0000000000000000000 ) ) ;
#292 = CARTESIAN_POINT ( 'NONE',  ( 0.0000000000000000000, 0.0000000000000000000, -2.771739583379312100 ) ) ;
#293 = CARTESIAN_POINT ( 'NONE',  ( 0.0000000000000000000, 1.012782902894861200E-014, 2.771739583379312100 ) ) ;
#294 = EDGE_CURVE ( 'NONE', #105, #29, #318, .T. ) ;
#295 = CIRCLE ( 'NONE', #126, 25.15315404825759100 ) ;
#296 = EDGE_LOOP ( 'NONE', ( #310, #80, #355, #12, #285 ) ) ;
#297 = CC_DESIGN_DATE_AND_TIME_ASSIGNMENT ( #303, #249, ( #258 ) ) ;
#298 = CALENDAR_DATE ( 2015, 13, 7 ) ;
#299 =( NAMED_UNIT ( * ) PLANE_ANGLE_UNIT ( ) SI_UNIT ( $, .RADIAN. ) );
#300 = APPROVAL_ROLE ( '' ) ;
#301 = CONICAL_SURFACE ( 'NONE', #32, 25.15315404825760500, 0.7083095640053727000 ) ;
#302 = AXIS2_PLACEMENT_3D ( 'NONE', #342, #176, #5 ) ;
#303 = DATE_AND_TIME ( #17, #90 ) ;
#304 = ORIENTED_EDGE ( 'NONE', *, *, #42, .T. ) ;
#305 = AXIS2_PLACEMENT_3D ( 'NONE', #221, #21, #223 ) ;
#306 = EDGE_CURVE ( 'NONE', #286, #105, #31, .T. ) ;
#307 = CYLINDRICAL_SURFACE ( 'NONE', #71, 25.39999999999999900 ) ;
#308 = ORIENTED_EDGE ( 'NONE', *, *, #278, .T. ) ;
#309 = AXIS2_PLACEMENT_3D ( 'NONE', #232, #57, #174 ) ;
#310 = ORIENTED_EDGE ( 'NONE', *, *, #257, .F. ) ;
#311 = APPROVAL ( #78, 'UNSPECIFIED' ) ;
#312 = PERSON_AND_ORGANIZATION ( #231, #141 ) ;
#313 = ADVANCED_FACE ( 'NONE', ( #111 ), #307, .T. ) ;
#314 = VERTEX_POINT ( 'NONE', #239 ) ;
#315 = DIRECTION ( 'NONE',  ( 0.0000000000000000000, 0.0000000000000000000, -1.000000000000000000 ) ) ;
#316 = CARTESIAN_POINT ( 'NONE',  ( 0.0000000000000000000, 0.0000000000000000000, -2.771739583379312100 ) ) ;
#317 = DIRECTION ( 'NONE',  ( -1.000000000000000000, 0.0000000000000000000, 0.0000000000000000000 ) ) ;
#318 = LINE ( 'NONE', #209, #250 ) ;
#319 = CARTESIAN_POINT ( 'NONE',  ( -25.39999999999999900, 3.110602869834276900E-015, 2.771739583379310400 ) ) ;
#320 = AXIS2_PLACEMENT_3D ( 'NONE', #131, #265, #9 ) ;
#321 = DIRECTION ( 'NONE',  ( 1.000000000000000000, 0.0000000000000000000, 0.0000000000000000000 ) ) ;
#322 = LOCAL_TIME ( 11, 20, 26.00000000000000000, #33 ) ;
#323 = CONICAL_SURFACE ( 'NONE', #106, 25.39999999999999900, 0.8072188989740048900 ) ;
#324 = EDGE_LOOP ( 'NONE', ( #261, #15, #361, #116 ) ) ;
#325 = CARTESIAN_POINT ( 'NONE',  ( 25.39999999999999900, 0.0000000000000000000, 0.5598012458941370500 ) ) ;
#326 = VECTOR ( 'NONE', #16, 1000.000000000000000 ) ;
#327 = DATE_TIME_ROLE ( 'creation_date' ) ;
#328 = PRODUCT_DEFINITION_SHAPE ( 'NONE', 'NONE',  #72 ) ;
#329 = EDGE_CURVE ( 'NONE', #135, #314, #171, .T. ) ;
#330 = LINE ( 'NONE', #91, #256 ) ;
#331 = UNCERTAINTY_MEASURE_WITH_UNIT (LENGTH_MEASURE( 1.000000000000000100E-005 ), #181, 'distance_accuracy_value', 'NONE');
#332 = CALENDAR_DATE ( 2015, 13, 7 ) ;
#333 = CC_DESIGN_APPROVAL ( #311, ( #258 ) ) ;
#334 = FACE_OUTER_BOUND ( 'NONE', #237, .T. ) ;
#335 = SPHERICAL_SURFACE ( 'NONE', #336, 582.2000000000000500 ) ;
#336 = AXIS2_PLACEMENT_3D ( 'NONE', #2, #207, #34 ) ;
#337 = DATE_AND_TIME ( #53, #134 ) ;
#338 = CIRCLE ( 'NONE', #143, 582.2000000000000500 ) ;
#339 = ORIENTED_EDGE ( 'NONE', *, *, #294, .T. ) ;
#340 = ORIENTED_EDGE ( 'NONE', *, *, #348, .F. ) ;
#341 = ADVANCED_FACE ( 'NONE', ( #194 ), #301, .T. ) ;
#342 = CARTESIAN_POINT ( 'NONE',  ( 0.0000000000000000000, 0.0000000000000000000, 0.8479728450513646100 ) ) ;
#343 = DIRECTION ( 'NONE',  ( 1.000000000000000000, 0.0000000000000000000, 0.0000000000000000000 ) ) ;
#344 = CARTESIAN_POINT ( 'NONE',  ( 25.15315404825759100, 3.095487914600086300E-015, 0.8479728450513646100 ) ) ;
#345 = DIRECTION ( 'NONE',  ( -1.000000000000000000, 0.0000000000000000000, 0.0000000000000000000 ) ) ;
#346 = DIRECTION ( 'NONE',  ( 0.0000000000000000000, 0.0000000000000000000, -1.000000000000000000 ) ) ;
#347 = DIRECTION ( 'NONE',  ( -0.0000000000000000000, -0.0000000000000000000, 1.000000000000000000 ) ) ;
#348 = EDGE_CURVE ( 'NONE', #135, #367, #24, .T. ) ;
#349 = VERTEX_POINT ( 'NONE', #325 ) ;
#350 = DIRECTION ( 'NONE',  ( 0.0000000000000000000, 0.0000000000000000000, -1.000000000000000000 ) ) ;
#351 = DIRECTION ( 'NONE',  ( 1.000000000000000000, -1.224646799147353200E-016, 0.0000000000000000000 ) ) ;
#352 = CARTESIAN_POINT ( 'NONE',  ( 0.0000000000000000000, 0.0000000000000000000, -162.6282604166207200 ) ) ;
#353 = PERSON_AND_ORGANIZATION ( #231, #141 ) ;
#354 = CC_DESIGN_SECURITY_CLASSIFICATION ( #258, ( #168 ) ) ;
#355 = ORIENTED_EDGE ( 'NONE', *, *, #278, .F. ) ;
#356 = DIRECTION ( 'NONE',  ( -0.7223668110366767700, 8.846442029463470900E-017, 0.6915100796898785400 ) ) ;
#357 = ADVANCED_BREP_SHAPE_REPRESENTATION ( '4935-E0W', ( #97, #305 ), #113 ) ;
#358 = APPROVAL_ROLE ( '' ) ;
#359 = LINE ( 'NONE', #201, #59 ) ;
#360 = AXIS2_PLACEMENT_3D ( 'NONE', #236, #64, #262 ) ;
#361 = ORIENTED_EDGE ( 'NONE', *, *, #257, .T. ) ;
#362 = PRODUCT ( '4935-E0W', '4935-E0W', '', ( #47 ) ) ;
#363 = EDGE_CURVE ( 'NONE', #25, #367, #11, .T. ) ;
#364 = CARTESIAN_POINT ( 'NONE',  ( -25.15018433667657400, 3.095306072210981200E-015, -2.771739583379312100 ) ) ;
#365 = ORIENTED_EDGE ( 'NONE', *, *, #165, .F. ) ;
#366 = ORIENTED_EDGE ( 'NONE', *, *, #226, .F. ) ;
#367 = VERTEX_POINT ( 'NONE', #19 ) ;
ENDSEC;
END-ISO-10303-21;
