ISO-10303-21;
HEADER;
FILE_DESCRIPTION (( 'STEP AP203' ),
    '1' );
FILE_NAME ('Web Model 47020_47020.step',
    '2018-03-15T18:34:56',
    ( '' ),
    ( '' ),
    'SwSTEP 2.0',
    'SolidWorks 2016',
    '' );
FILE_SCHEMA (( 'CONFIG_CONTROL_DESIGN' ));
ENDSEC;

DATA;
#1 = CARTESIAN_POINT ( 'NONE',  ( 0.7500000000000000000, 6.349999999999997900, -6.349999999999999600 ) ) ;
#2 = ADVANCED_FACE ( 'NONE', ( #24 ), #46, .F. ) ;
#3 = DIRECTION ( 'NONE',  ( -1.000000000000000000, -0.0000000000000000000, -0.0000000000000000000 ) ) ;
#4 = DIRECTION ( 'NONE',  ( 0.0000000000000000000, -2.048885995248197400E-016, -1.000000000000000000 ) ) ;
#5 = APPROVAL_DATE_TIME ( #145, #194 ) ;
#6 = APPLICATION_CONTEXT ( 'configuration controlled 3d designs of mechanical parts and assemblies' ) ;
#7 = ORIENTED_EDGE ( 'NONE', *, *, #95, .T. ) ;
#8 = DATE_AND_TIME ( #120, #79 ) ;
#9 = VECTOR ( 'NONE', #99, 1000.000000000000000 ) ;
#10 = AXIS2_PLACEMENT_3D ( 'NONE', #30, #201, #117 ) ;
#11 = ORIENTED_EDGE ( 'NONE', *, *, #81, .F. ) ;
#12 = CARTESIAN_POINT ( 'NONE',  ( 0.7500000000000000000, -6.350000000000001400, 6.350000000000002300 ) ) ;
#13 = DIRECTION ( 'NONE',  ( 0.0000000000000000000, 0.0000000000000000000, -1.000000000000000000 ) ) ;
#14 = DATE_AND_TIME ( #122, #231 ) ;
#15 = CC_DESIGN_APPROVAL ( #194, ( #197 ) ) ;
#16 = DIRECTION ( 'NONE',  ( 1.000000000000000000, 0.0000000000000000000, 0.0000000000000000000 ) ) ;
#17 = CARTESIAN_POINT ( 'NONE',  ( 0.7500000000000000000, -6.350000000000001400, -6.350000000000002300 ) ) ;
#18 = PLANE ( 'NONE',  #209 ) ;
#19 = COORDINATED_UNIVERSAL_TIME_OFFSET ( 5, 0, .BEHIND. ) ;
#20 = ORIENTED_EDGE ( 'NONE', *, *, #139, .T. ) ;
#21 = PERSON_AND_ORGANIZATION_ROLE ( 'classification_officer' ) ;
#22 = CARTESIAN_POINT ( 'NONE',  ( -0.7500000000000000000, 6.349999999999997900, 6.349999999999999600 ) ) ;
#23 = VECTOR ( 'NONE', #94, 1000.000000000000000 ) ;
#24 = FACE_OUTER_BOUND ( 'NONE', #183, .T. ) ;
#25 = DESIGN_CONTEXT ( 'detailed design', #52, 'design' ) ;
#26 = VERTEX_POINT ( 'NONE', #59 ) ;
#27 = ORIENTED_EDGE ( 'NONE', *, *, #66, .T. ) ;
#28 = DIRECTION ( 'NONE',  ( -0.0000000000000000000, -0.0000000000000000000, 1.000000000000000000 ) ) ;
#29 = CC_DESIGN_DATE_AND_TIME_ASSIGNMENT ( #152, #68, ( #72 ) ) ;
#30 = CARTESIAN_POINT ( 'NONE',  ( 0.7500000000000000000, 6.349999999999997900, -6.349999999999999600 ) ) ;
#31 = DIRECTION ( 'NONE',  ( -1.000000000000000000, -0.0000000000000000000, -0.0000000000000000000 ) ) ;
#32 = PERSON_AND_ORGANIZATION_ROLE ( 'design_supplier' ) ;
#33 = DATE_TIME_ROLE ( 'classification_date' ) ;
#34 = MECHANICAL_CONTEXT ( 'NONE', #6, 'mechanical' ) ;
#35 = CC_DESIGN_APPROVAL ( #158, ( #185 ) ) ;
#36 = APPROVAL_STATUS ( 'not_yet_approved' ) ;
#37 = SHAPE_DEFINITION_REPRESENTATION ( #54, #40 ) ;
#38 = EDGE_LOOP ( 'NONE', ( #157, #167, #142, #151 ) ) ;
#39 = LINE ( 'NONE', #237, #217 ) ;
#40 = ADVANCED_BREP_SHAPE_REPRESENTATION ( 'Web Model 47020_47020', ( #130, #155 ), #41 ) ;
#41 =( GEOMETRIC_REPRESENTATION_CONTEXT ( 3 ) GLOBAL_UNCERTAINTY_ASSIGNED_CONTEXT ( ( #225 ) ) GLOBAL_UNIT_ASSIGNED_CONTEXT ( ( #171, #206, #190 ) ) REPRESENTATION_CONTEXT ( 'NONE', 'WORKASPACE' ) );
#42 = VECTOR ( 'NONE', #184, 1000.000000000000000 ) ;
#43 = DIRECTION ( 'NONE',  ( 0.0000000000000000000, -1.000000000000000000, 2.048885995248197400E-016 ) ) ;
#44 = EDGE_CURVE ( 'NONE', #174, #213, #39, .T. ) ;
#45 = ORIENTED_EDGE ( 'NONE', *, *, #154, .T. ) ;
#46 = PLANE ( 'NONE',  #160 ) ;
#47 = VECTOR ( 'NONE', #3, 1000.000000000000000 ) ;
#48 = DIRECTION ( 'NONE',  ( 0.0000000000000000000, -1.000000000000000000, 0.0000000000000000000 ) ) ;
#49 = CARTESIAN_POINT ( 'NONE',  ( -0.7500000000000000000, -6.350000000000001400, 6.350000000000002300 ) ) ;
#50 = VERTEX_POINT ( 'NONE', #12 ) ;
#51 = DIRECTION ( 'NONE',  ( -1.000000000000000000, -0.0000000000000000000, -0.0000000000000000000 ) ) ;
#52 = APPLICATION_CONTEXT ( 'configuration controlled 3d designs of mechanical parts and assemblies' ) ;
#53 = CARTESIAN_POINT ( 'NONE',  ( 0.0000000000000000000, 0.0000000000000000000, 0.0000000000000000000 ) ) ;
#54 = PRODUCT_DEFINITION_SHAPE ( 'NONE', 'NONE',  #72 ) ;
#55 = EDGE_CURVE ( 'NONE', #195, #191, #109, .T. ) ;
#56 = PERSON_AND_ORGANIZATION ( #162, #178 ) ;
#57 = ORIENTED_EDGE ( 'NONE', *, *, #87, .T. ) ;
#58 = CARTESIAN_POINT ( 'NONE',  ( -0.7500000000000000000, 6.349999999999997900, -6.349999999999999600 ) ) ;
#59 = CARTESIAN_POINT ( 'NONE',  ( 0.7500000000000000000, 6.349999999999997900, 6.349999999999999600 ) ) ;
#60 = LINE ( 'NONE', #1, #92 ) ;
#61 = CARTESIAN_POINT ( 'NONE',  ( 0.7500000000000000000, 6.349999999999997900, 6.349999999999999600 ) ) ;
#62 = CARTESIAN_POINT ( 'NONE',  ( 0.7500000000000000000, -6.350000000000001400, 6.350000000000002300 ) ) ;
#63 = VERTEX_POINT ( 'NONE', #223 ) ;
#64 = CARTESIAN_POINT ( 'NONE',  ( 0.7500000000000000000, -6.350000000000001400, 6.350000000000002300 ) ) ;
#65 = DIRECTION ( 'NONE',  ( -0.0000000000000000000, 1.000000000000000000, 0.0000000000000000000 ) ) ;
#66 = EDGE_CURVE ( 'NONE', #26, #50, #97, .T. ) ;
#67 = COORDINATED_UNIVERSAL_TIME_OFFSET ( 5, 0, .BEHIND. ) ;
#68 = DATE_TIME_ROLE ( 'creation_date' ) ;
#69 = ORIENTED_EDGE ( 'NONE', *, *, #193, .T. ) ;
#70 = APPROVAL_STATUS ( 'not_yet_approved' ) ;
#71 = SECURITY_CLASSIFICATION_LEVEL ( 'unclassified' ) ;
#72 = PRODUCT_DEFINITION ( 'UNKNOWN', '', #197, #25 ) ;
#73 = PERSON_AND_ORGANIZATION_ROLE ( 'creator' ) ;
#74 = LINE ( 'NONE', #165, #47 ) ;
#75 = APPLICATION_PROTOCOL_DEFINITION ( 'international standard', 'config_control_design', 1994, #52 ) ;
#76 = ORIENTED_EDGE ( 'NONE', *, *, #132, .T. ) ;
#77 = AXIS2_PLACEMENT_3D ( 'NONE', #125, #4, #146 ) ;
#78 = COORDINATED_UNIVERSAL_TIME_OFFSET ( 5, 0, .BEHIND. ) ;
#79 = LOCAL_TIME ( 14, 34, 56.00000000000000000, #126 ) ;
#80 = LINE ( 'NONE', #61, #108 ) ;
#81 = EDGE_CURVE ( 'NONE', #191, #174, #128, .T. ) ;
#82 = PERSON_AND_ORGANIZATION ( #162, #178 ) ;
#83 = EDGE_CURVE ( 'NONE', #63, #174, #173, .T. ) ;
#84 = DIRECTION ( 'NONE',  ( 1.000000000000000000, 0.0000000000000000000, 0.0000000000000000000 ) ) ;
#85 = CARTESIAN_POINT ( 'NONE',  ( 0.7500000000000000000, 6.349999999999997900, 6.349999999999999600 ) ) ;
#86 = EDGE_LOOP ( 'NONE', ( #27, #57, #7, #45 ) ) ;
#87 = EDGE_CURVE ( 'NONE', #50, #179, #200, .T. ) ;
#88 = PERSON_AND_ORGANIZATION ( #162, #178 ) ;
#89 = APPROVAL_PERSON_ORGANIZATION ( #104, #222, #188 ) ;
#90 = CARTESIAN_POINT ( 'NONE',  ( -0.7500000000000000000, 6.349999999999997900, 6.349999999999999600 ) ) ;
#91 = APPLICATION_PROTOCOL_DEFINITION ( 'international standard', 'config_control_design', 1994, #6 ) ;
#92 = VECTOR ( 'NONE', #143, 1000.000000000000000 ) ;
#93 = APPROVAL_STATUS ( 'not_yet_approved' ) ;
#94 = DIRECTION ( 'NONE',  ( -1.000000000000000000, -0.0000000000000000000, -0.0000000000000000000 ) ) ;
#95 = EDGE_CURVE ( 'NONE', #179, #63, #60, .T. ) ;
#96 = EDGE_CURVE ( 'NONE', #179, #191, #137, .T. ) ;
#97 = LINE ( 'NONE', #85, #106 ) ;
#98 = FACE_OUTER_BOUND ( 'NONE', #86, .T. ) ;
#99 = DIRECTION ( 'NONE',  ( -0.0000000000000000000, 1.000000000000000000, 2.048885995248197400E-016 ) ) ;
#100 = LOCAL_TIME ( 14, 34, 56.00000000000000000, #198 ) ;
#101 = DIRECTION ( 'NONE',  ( 0.0000000000000000000, -0.0000000000000000000, -1.000000000000000000 ) ) ;
#102 = DATE_AND_TIME ( #114, #133 ) ;
#103 = ORIENTED_EDGE ( 'NONE', *, *, #139, .F. ) ;
#104 = PERSON_AND_ORGANIZATION ( #162, #178 ) ;
#105 = PLANE ( 'NONE',  #77 ) ;
#106 = VECTOR ( 'NONE', #43, 1000.000000000000000 ) ;
#107 = CC_DESIGN_PERSON_AND_ORGANIZATION_ASSIGNMENT ( #56, #144, ( #197 ) ) ;
#108 = VECTOR ( 'NONE', #28, 1000.000000000000000 ) ;
#109 = LINE ( 'NONE', #199, #131 ) ;
#110 = CARTESIAN_POINT ( 'NONE',  ( -0.7500000000000000000, 0.0000000000000000000, 0.0000000000000000000 ) ) ;
#111 = PERSON_AND_ORGANIZATION ( #162, #178 ) ;
#112 = AXIS2_PLACEMENT_3D ( 'NONE', #64, #65, #226 ) ;
#113 = DIRECTION ( 'NONE',  ( -0.0000000000000000000, -0.0000000000000000000, 1.000000000000000000 ) ) ;
#114 = CALENDAR_DATE ( 2018, 15, 3 ) ;
#115 = VECTOR ( 'NONE', #202, 1000.000000000000000 ) ;
#116 = EDGE_LOOP ( 'NONE', ( #76, #228, #118, #20 ) ) ;
#117 = DIRECTION ( 'NONE',  ( 0.0000000000000000000, -1.000000000000000000, -2.048885995248197400E-016 ) ) ;
#118 = ORIENTED_EDGE ( 'NONE', *, *, #66, .F. ) ;
#119 = CARTESIAN_POINT ( 'NONE',  ( 0.7500000000000000000, -6.350000000000001400, 6.350000000000002300 ) ) ;
#120 = CALENDAR_DATE ( 2018, 15, 3 ) ;
#121 = CALENDAR_DATE ( 2018, 15, 3 ) ;
#122 = CALENDAR_DATE ( 2018, 15, 3 ) ;
#123 = ORIENTED_EDGE ( 'NONE', *, *, #154, .F. ) ;
#124 = DIRECTION ( 'NONE',  ( 1.000000000000000000, 0.0000000000000000000, 0.0000000000000000000 ) ) ;
#125 = CARTESIAN_POINT ( 'NONE',  ( 0.7500000000000000000, 6.349999999999997900, 6.349999999999999600 ) ) ;
#126 = COORDINATED_UNIVERSAL_TIME_OFFSET ( 5, 0, .BEHIND. ) ;
#127 = ADVANCED_FACE ( 'NONE', ( #212 ), #140, .F. ) ;
#128 = LINE ( 'NONE', #58, #9 ) ;
#129 = PERSON_AND_ORGANIZATION_ROLE ( 'design_owner' ) ;
#130 = MANIFOLD_SOLID_BREP ( 'Boss-Extrude1', #135 ) ;
#131 = VECTOR ( 'NONE', #13, 1000.000000000000000 ) ;
#132 = EDGE_CURVE ( 'NONE', #213, #195, #147, .T. ) ;
#133 = LOCAL_TIME ( 14, 34, 56.00000000000000000, #19 ) ;
#134 = CARTESIAN_POINT ( 'NONE',  ( 0.7500000000000000000, 6.349999999999997900, -6.349999999999999600 ) ) ;
#135 = CLOSED_SHELL ( 'NONE', ( #234, #141, #127, #168, #149, #2 ) ) ;
#136 = PLANE ( 'NONE',  #229 ) ;
#137 = LINE ( 'NONE', #187, #220 ) ;
#138 = ORIENTED_EDGE ( 'NONE', *, *, #83, .T. ) ;
#139 = EDGE_CURVE ( 'NONE', #26, #213, #74, .T. ) ;
#140 = PLANE ( 'NONE',  #10 ) ;
#141 = ADVANCED_FACE ( 'NONE', ( #150 ), #227, .F. ) ;
#142 = ORIENTED_EDGE ( 'NONE', *, *, #95, .F. ) ;
#143 = DIRECTION ( 'NONE',  ( -0.0000000000000000000, 1.000000000000000000, 2.048885995248197400E-016 ) ) ;
#144 = PERSON_AND_ORGANIZATION_ROLE ( 'creator' ) ;
#145 = DATE_AND_TIME ( #121, #100 ) ;
#146 = DIRECTION ( 'NONE',  ( 0.0000000000000000000, 1.000000000000000000, -2.048885995248197400E-016 ) ) ;
#147 = LINE ( 'NONE', #90, #42 ) ;
#148 = CC_DESIGN_PERSON_AND_ORGANIZATION_ASSIGNMENT ( #180, #21, ( #185 ) ) ;
#149 = ADVANCED_FACE ( 'NONE', ( #98 ), #18, .T. ) ;
#150 = FACE_OUTER_BOUND ( 'NONE', #192, .T. ) ;
#151 = ORIENTED_EDGE ( 'NONE', *, *, #96, .T. ) ;
#152 = DATE_AND_TIME ( #159, #215 ) ;
#153 = APPROVAL_DATE_TIME ( #14, #222 ) ;
#154 = EDGE_CURVE ( 'NONE', #63, #26, #80, .T. ) ;
#155 = AXIS2_PLACEMENT_3D ( 'NONE', #53, #208, #124 ) ;
#156 = ORIENTED_EDGE ( 'NONE', *, *, #55, .F. ) ;
#157 = ORIENTED_EDGE ( 'NONE', *, *, #81, .T. ) ;
#158 = APPROVAL ( #70, 'UNSPECIFIED' ) ;
#159 = CALENDAR_DATE ( 2018, 15, 3 ) ;
#160 = AXIS2_PLACEMENT_3D ( 'NONE', #110, #84, #221 ) ;
#161 = CARTESIAN_POINT ( 'NONE',  ( -0.7500000000000000000, 6.349999999999997900, -6.349999999999999600 ) ) ;
#162 = PERSON ( 'UNSPECIFIED', 'UNSPECIFIED', 'UNSPECIFIED', ('UNSPECIFIED'), ('UNSPECIFIED'), ('UNSPECIFIED') ) ;
#163 = CC_DESIGN_DATE_AND_TIME_ASSIGNMENT ( #102, #33, ( #185 ) ) ;
#164 = CARTESIAN_POINT ( 'NONE',  ( -0.7500000000000000000, -6.350000000000001400, -6.350000000000002300 ) ) ;
#165 = CARTESIAN_POINT ( 'NONE',  ( 0.7500000000000000000, 6.349999999999997900, 6.349999999999999600 ) ) ;
#166 = FACE_OUTER_BOUND ( 'NONE', #235, .T. ) ;
#167 = ORIENTED_EDGE ( 'NONE', *, *, #83, .F. ) ;
#168 = ADVANCED_FACE ( 'NONE', ( #166 ), #136, .F. ) ;
#169 = CARTESIAN_POINT ( 'NONE',  ( 0.7500000000000000000, 0.0000000000000000000, 0.0000000000000000000 ) ) ;
#170 = APPROVAL_DATE_TIME ( #8, #158 ) ;
#171 =( LENGTH_UNIT ( ) NAMED_UNIT ( * ) SI_UNIT ( .MILLI., .METRE. ) );
#172 = APPROVAL_ROLE ( '' ) ;
#173 = LINE ( 'NONE', #134, #176 ) ;
#174 = VERTEX_POINT ( 'NONE', #161 ) ;
#175 = CC_DESIGN_PERSON_AND_ORGANIZATION_ASSIGNMENT ( #111, #32, ( #197 ) ) ;
#176 = VECTOR ( 'NONE', #51, 1000.000000000000000 ) ;
#177 = ORIENTED_EDGE ( 'NONE', *, *, #44, .T. ) ;
#178 = ORGANIZATION ( 'UNSPECIFIED', 'UNSPECIFIED', '' ) ;
#179 = VERTEX_POINT ( 'NONE', #17 ) ;
#180 = PERSON_AND_ORGANIZATION ( #162, #178 ) ;
#181 = PERSON_AND_ORGANIZATION ( #162, #178 ) ;
#182 = CC_DESIGN_PERSON_AND_ORGANIZATION_ASSIGNMENT ( #88, #73, ( #72 ) ) ;
#183 = EDGE_LOOP ( 'NONE', ( #205, #196, #11, #156 ) ) ;
#184 = DIRECTION ( 'NONE',  ( 0.0000000000000000000, -1.000000000000000000, 2.048885995248197400E-016 ) ) ;
#185 = SECURITY_CLASSIFICATION ( '', '', #71 ) ;
#186 = CARTESIAN_POINT ( 'NONE',  ( 0.7500000000000000000, 6.349999999999997900, 6.349999999999999600 ) ) ;
#187 = CARTESIAN_POINT ( 'NONE',  ( 0.7500000000000000000, -6.350000000000001400, -6.350000000000002300 ) ) ;
#188 = APPROVAL_ROLE ( '' ) ;
#189 = CC_DESIGN_SECURITY_CLASSIFICATION ( #185, ( #197 ) ) ;
#190 =( NAMED_UNIT ( * ) SI_UNIT ( $, .STERADIAN. ) SOLID_ANGLE_UNIT ( ) );
#191 = VERTEX_POINT ( 'NONE', #164 ) ;
#192 = EDGE_LOOP ( 'NONE', ( #232, #236, #230, #69 ) ) ;
#193 = EDGE_CURVE ( 'NONE', #50, #195, #204, .T. ) ;
#194 = APPROVAL ( #93, 'UNSPECIFIED' ) ;
#195 = VERTEX_POINT ( 'NONE', #49 ) ;
#196 = ORIENTED_EDGE ( 'NONE', *, *, #44, .F. ) ;
#197 = PRODUCT_DEFINITION_FORMATION_WITH_SPECIFIED_SOURCE ( 'ANY', '', #218, .NOT_KNOWN. ) ;
#198 = COORDINATED_UNIVERSAL_TIME_OFFSET ( 5, 0, .BEHIND. ) ;
#199 = CARTESIAN_POINT ( 'NONE',  ( -0.7500000000000000000, -6.350000000000001400, 6.350000000000002300 ) ) ;
#200 = LINE ( 'NONE', #62, #115 ) ;
#201 = DIRECTION ( 'NONE',  ( 0.0000000000000000000, -2.048885995248197400E-016, 1.000000000000000000 ) ) ;
#202 = DIRECTION ( 'NONE',  ( 0.0000000000000000000, 0.0000000000000000000, -1.000000000000000000 ) ) ;
#203 = APPROVAL_PERSON_ORGANIZATION ( #219, #158, #210 ) ;
#204 = LINE ( 'NONE', #119, #23 ) ;
#205 = ORIENTED_EDGE ( 'NONE', *, *, #132, .F. ) ;
#206 =( NAMED_UNIT ( * ) PLANE_ANGLE_UNIT ( ) SI_UNIT ( $, .RADIAN. ) );
#207 = CC_DESIGN_PERSON_AND_ORGANIZATION_ASSIGNMENT ( #82, #129, ( #218 ) ) ;
#208 = DIRECTION ( 'NONE',  ( 0.0000000000000000000, 0.0000000000000000000, 1.000000000000000000 ) ) ;
#209 = AXIS2_PLACEMENT_3D ( 'NONE', #169, #16, #224 ) ;
#210 = APPROVAL_ROLE ( '' ) ;
#211 = APPROVAL_PERSON_ORGANIZATION ( #181, #194, #172 ) ;
#212 = FACE_OUTER_BOUND ( 'NONE', #38, .T. ) ;
#213 = VERTEX_POINT ( 'NONE', #22 ) ;
#214 = PRODUCT_RELATED_PRODUCT_CATEGORY ( 'detail', '', ( #218 ) ) ;
#215 = LOCAL_TIME ( 14, 34, 56.00000000000000000, #67 ) ;
#216 = FACE_OUTER_BOUND ( 'NONE', #116, .T. ) ;
#217 = VECTOR ( 'NONE', #113, 1000.000000000000000 ) ;
#218 = PRODUCT ( 'Web Model 47020_47020', 'Web Model 47020_47020', '', ( #34 ) ) ;
#219 = PERSON_AND_ORGANIZATION ( #162, #178 ) ;
#220 = VECTOR ( 'NONE', #31, 1000.000000000000000 ) ;
#221 = DIRECTION ( 'NONE',  ( 0.0000000000000000000, 0.0000000000000000000, -1.000000000000000000 ) ) ;
#222 = APPROVAL ( #36, 'UNSPECIFIED' ) ;
#223 = CARTESIAN_POINT ( 'NONE',  ( 0.7500000000000000000, 6.349999999999997900, -6.349999999999999600 ) ) ;
#224 = DIRECTION ( 'NONE',  ( 0.0000000000000000000, 0.0000000000000000000, -1.000000000000000000 ) ) ;
#225 = UNCERTAINTY_MEASURE_WITH_UNIT (LENGTH_MEASURE( 1.000000000000000100E-005 ), #171, 'distance_accuracy_value', 'NONE');
#226 = DIRECTION ( 'NONE',  ( 0.0000000000000000000, -0.0000000000000000000, 1.000000000000000000 ) ) ;
#227 = PLANE ( 'NONE',  #112 ) ;
#228 = ORIENTED_EDGE ( 'NONE', *, *, #193, .F. ) ;
#229 = AXIS2_PLACEMENT_3D ( 'NONE', #186, #48, #101 ) ;
#230 = ORIENTED_EDGE ( 'NONE', *, *, #87, .F. ) ;
#231 = LOCAL_TIME ( 14, 34, 56.00000000000000000, #78 ) ;
#232 = ORIENTED_EDGE ( 'NONE', *, *, #55, .T. ) ;
#233 = CC_DESIGN_APPROVAL ( #222, ( #72 ) ) ;
#234 = ADVANCED_FACE ( 'NONE', ( #216 ), #105, .F. ) ;
#235 = EDGE_LOOP ( 'NONE', ( #177, #103, #123, #138 ) ) ;
#236 = ORIENTED_EDGE ( 'NONE', *, *, #96, .F. ) ;
#237 = CARTESIAN_POINT ( 'NONE',  ( -0.7500000000000000000, 6.349999999999997900, 6.349999999999999600 ) ) ;
ENDSEC;
END-ISO-10303-21;
