ISO-10303-21;
HEADER;
FILE_DESCRIPTION (( 'STEP AP203' ),
    '1' );
FILE_NAME ('34523_Default.step',
    '2017-06-22T14:59:04',
    ( '' ),
    ( '' ),
    'SwSTEP 2.0',
    'SolidWorks 2016',
    '' );
FILE_SCHEMA (( 'CONFIG_CONTROL_DESIGN' ));
ENDSEC;

DATA;
#1 = CALENDAR_DATE ( 2017, 22, 6 ) ;
#2 = AXIS2_PLACEMENT_3D ( 'NONE', #86, #56, #63 ) ;
#3 = LOCAL_TIME ( 10, 59, 4.000000000000000000, #22 ) ;
#4 = APPROVAL_STATUS ( 'not_yet_approved' ) ;
#5 = DATE_TIME_ROLE ( 'creation_date' ) ;
#6 = DIRECTION ( 'NONE',  ( 1.000000000000000000, 0.0000000000000000000, 0.0000000000000000000 ) ) ;
#7 = VERTEX_POINT ( 'NONE', #158 ) ;
#8 = PRODUCT_RELATED_PRODUCT_CATEGORY ( 'detail', '', ( #155 ) ) ;
#9 = CYLINDRICAL_SURFACE ( 'NONE', #70, 5.000000000000000000 ) ;
#10 = PERSON_AND_ORGANIZATION_ROLE ( 'creator' ) ;
#11 = DIRECTION ( 'NONE',  ( 1.000000000000000000, 0.0000000000000000000, 0.0000000000000000000 ) ) ;
#12 = DATE_TIME_ROLE ( 'classification_date' ) ;
#13 = APPROVAL_PERSON_ORGANIZATION ( #149, #90, #71 ) ;
#14 = PLANE ( 'NONE',  #105 ) ;
#15 = CC_DESIGN_DATE_AND_TIME_ASSIGNMENT ( #52, #5, ( #137 ) ) ;
#16 = ADVANCED_FACE ( 'NONE', ( #110 ), #9, .T. ) ;
#17 = DIRECTION ( 'NONE',  ( 0.0000000000000000000, 0.0000000000000000000, 1.000000000000000000 ) ) ;
#18 = PERSON_AND_ORGANIZATION ( #171, #58 ) ;
#19 = ORIENTED_EDGE ( 'NONE', *, *, #78, .F. ) ;
#20 = APPROVAL_DATE_TIME ( #129, #141 ) ;
#21 = LINE ( 'NONE', #123, #112 ) ;
#22 = COORDINATED_UNIVERSAL_TIME_OFFSET ( 5, 0, .BEHIND. ) ;
#23 = DIRECTION ( 'NONE',  ( 1.000000000000000000, 0.0000000000000000000, -0.0000000000000000000 ) ) ;
#24 = COORDINATED_UNIVERSAL_TIME_OFFSET ( 5, 0, .BEHIND. ) ;
#25 = PLANE ( 'NONE',  #162 ) ;
#26 = PERSON_AND_ORGANIZATION ( #171, #58 ) ;
#27 = CC_DESIGN_PERSON_AND_ORGANIZATION_ASSIGNMENT ( #18, #143, ( #146 ) ) ;
#28 = PERSON_AND_ORGANIZATION ( #171, #58 ) ;
#29 = CC_DESIGN_APPROVAL ( #90, ( #152 ) ) ;
#30 = UNCERTAINTY_MEASURE_WITH_UNIT (LENGTH_MEASURE( 1.000000000000000100E-005 ), #136, 'distance_accuracy_value', 'NONE');
#31 = DIRECTION ( 'NONE',  ( 0.0000000000000000000, 0.0000000000000000000, 1.000000000000000000 ) ) ;
#32 = ADVANCED_FACE ( 'NONE', ( #42 ), #41, .T. ) ;
#33 = DESIGN_CONTEXT ( 'detailed design', #84, 'design' ) ;
#34 = AXIS2_PLACEMENT_3D ( 'NONE', #89, #83, #6 ) ;
#35 = VERTEX_POINT ( 'NONE', #164 ) ;
#36 = ORIENTED_EDGE ( 'NONE', *, *, #109, .F. ) ;
#37 = CC_DESIGN_APPROVAL ( #151, ( #146 ) ) ;
#38 = CARTESIAN_POINT ( 'NONE',  ( 0.0000000000000000000, 0.0000000000000000000, 0.5500000000000000400 ) ) ;
#39 = ORIENTED_EDGE ( 'NONE', *, *, #78, .T. ) ;
#40 = CIRCLE ( 'NONE', #54, 5.000000000000000000 ) ;
#41 = CYLINDRICAL_SURFACE ( 'NONE', #124, 5.000000000000000000 ) ;
#42 = FACE_OUTER_BOUND ( 'NONE', #76, .T. ) ;
#43 = APPLICATION_PROTOCOL_DEFINITION ( 'international standard', 'config_control_design', 1994, #84 ) ;
#44 = CALENDAR_DATE ( 2017, 22, 6 ) ;
#45 = CARTESIAN_POINT ( 'NONE',  ( 0.0000000000000000000, 0.0000000000000000000, -0.5500000000000000400 ) ) ;
#46 = CC_DESIGN_PERSON_AND_ORGANIZATION_ASSIGNMENT ( #51, #10, ( #152 ) ) ;
#47 = EDGE_CURVE ( 'NONE', #7, #145, #133, .T. ) ;
#48 = ORIENTED_EDGE ( 'NONE', *, *, #135, .T. ) ;
#49 = ORIENTED_EDGE ( 'NONE', *, *, #115, .F. ) ;
#50 = PERSON_AND_ORGANIZATION_ROLE ( 'design_owner' ) ;
#51 = PERSON_AND_ORGANIZATION ( #171, #58 ) ;
#52 = DATE_AND_TIME ( #59, #65 ) ;
#53 = CC_DESIGN_SECURITY_CLASSIFICATION ( #146, ( #152 ) ) ;
#54 = AXIS2_PLACEMENT_3D ( 'NONE', #131, #153, #173 ) ;
#55 = VERTEX_POINT ( 'NONE', #60 ) ;
#56 = DIRECTION ( 'NONE',  ( 0.0000000000000000000, 0.0000000000000000000, 1.000000000000000000 ) ) ;
#57 = COORDINATED_UNIVERSAL_TIME_OFFSET ( 5, 0, .BEHIND. ) ;
#58 = ORGANIZATION ( 'UNSPECIFIED', 'UNSPECIFIED', '' ) ;
#59 = CALENDAR_DATE ( 2017, 22, 6 ) ;
#60 = CARTESIAN_POINT ( 'NONE',  ( 5.000000000000000000, 6.123233995736766300E-016, -0.5500000000000000400 ) ) ;
#61 = DATE_AND_TIME ( #85, #167 ) ;
#62 = LOCAL_TIME ( 10, 59, 4.000000000000000000, #57 ) ;
#63 = DIRECTION ( 'NONE',  ( 1.000000000000000000, 0.0000000000000000000, 0.0000000000000000000 ) ) ;
#64 = EDGE_CURVE ( 'NONE', #145, #7, #119, .T. ) ;
#65 = LOCAL_TIME ( 10, 59, 4.000000000000000000, #24 ) ;
#66 = APPROVAL_ROLE ( '' ) ;
#67 = APPROVAL_ROLE ( '' ) ;
#68 = CARTESIAN_POINT ( 'NONE',  ( 5.000000000000000000, 6.123233995736766300E-016, 0.5500000000000000400 ) ) ;
#69 = CARTESIAN_POINT ( 'NONE',  ( 5.000000000000000000, 6.123233995736766300E-016, 0.5500000000000000400 ) ) ;
#70 = AXIS2_PLACEMENT_3D ( 'NONE', #38, #120, #138 ) ;
#71 = APPROVAL_ROLE ( '' ) ;
#72 = PERSON_AND_ORGANIZATION ( #171, #58 ) ;
#73 = CALENDAR_DATE ( 2017, 22, 6 ) ;
#74 = PERSON_AND_ORGANIZATION_ROLE ( 'design_supplier' ) ;
#75 = DIRECTION ( 'NONE',  ( 0.0000000000000000000, 0.0000000000000000000, 1.000000000000000000 ) ) ;
#76 = EDGE_LOOP ( 'NONE', ( #36, #140, #147, #48 ) ) ;
#77 = CC_DESIGN_DATE_AND_TIME_ASSIGNMENT ( #80, #12, ( #146 ) ) ;
#78 = EDGE_CURVE ( 'NONE', #55, #35, #40, .T. ) ;
#79 = APPROVAL_DATE_TIME ( #61, #151 ) ;
#80 = DATE_AND_TIME ( #44, #113 ) ;
#81 = APPROVAL_PERSON_ORGANIZATION ( #28, #141, #67 ) ;
#82 = DIRECTION ( 'NONE',  ( -0.0000000000000000000, -0.0000000000000000000, -1.000000000000000000 ) ) ;
#83 = DIRECTION ( 'NONE',  ( 0.0000000000000000000, 0.0000000000000000000, 1.000000000000000000 ) ) ;
#84 = APPLICATION_CONTEXT ( 'configuration controlled 3d designs of mechanical parts and assemblies' ) ;
#85 = CALENDAR_DATE ( 2017, 22, 6 ) ;
#86 = CARTESIAN_POINT ( 'NONE',  ( 0.0000000000000000000, 0.0000000000000000000, 0.5500000000000000400 ) ) ;
#87 = ORIENTED_EDGE ( 'NONE', *, *, #135, .F. ) ;
#88 = DIRECTION ( 'NONE',  ( 1.000000000000000000, 0.0000000000000000000, -0.0000000000000000000 ) ) ;
#89 = CARTESIAN_POINT ( 'NONE',  ( 0.0000000000000000000, 0.0000000000000000000, 0.0000000000000000000 ) ) ;
#90 = APPROVAL ( #4, 'UNSPECIFIED' ) ;
#91 = DIRECTION ( 'NONE',  ( -1.000000000000000000, 0.0000000000000000000, 0.0000000000000000000 ) ) ;
#92 = SHAPE_DEFINITION_REPRESENTATION ( #108, #121 ) ;
#93 = DIRECTION ( 'NONE',  ( 1.000000000000000000, 0.0000000000000000000, 0.0000000000000000000 ) ) ;
#94 = AXIS2_PLACEMENT_3D ( 'NONE', #116, #128, #11 ) ;
#95 = APPROVAL_DATE_TIME ( #142, #90 ) ;
#96 = APPROVAL_STATUS ( 'not_yet_approved' ) ;
#97 = CC_DESIGN_PERSON_AND_ORGANIZATION_ASSIGNMENT ( #118, #144, ( #137 ) ) ;
#98 = VECTOR ( 'NONE', #161, 1000.000000000000000 ) ;
#99 = MECHANICAL_CONTEXT ( 'NONE', #150, 'mechanical' ) ;
#100 = CC_DESIGN_PERSON_AND_ORGANIZATION_ASSIGNMENT ( #122, #50, ( #155 ) ) ;
#101 = CLOSED_SHELL ( 'NONE', ( #16, #32, #104, #175 ) ) ;
#102 = MANIFOLD_SOLID_BREP ( 'Boss-Extrude1', #101 ) ;
#103 = ORIENTED_EDGE ( 'NONE', *, *, #64, .T. ) ;
#104 = ADVANCED_FACE ( 'NONE', ( #166 ), #25, .T. ) ;
#105 = AXIS2_PLACEMENT_3D ( 'NONE', #45, #31, #88 ) ;
#106 = FACE_OUTER_BOUND ( 'NONE', #130, .T. ) ;
#107 = EDGE_LOOP ( 'NONE', ( #134, #165, #39, #49 ) ) ;
#108 = PRODUCT_DEFINITION_SHAPE ( 'NONE', 'NONE',  #137 ) ;
#109 = EDGE_CURVE ( 'NONE', #145, #55, #159, .T. ) ;
#110 = FACE_OUTER_BOUND ( 'NONE', #107, .T. ) ;
#111 = CC_DESIGN_PERSON_AND_ORGANIZATION_ASSIGNMENT ( #72, #74, ( #152 ) ) ;
#112 = VECTOR ( 'NONE', #82, 1000.000000000000000 ) ;
#113 = LOCAL_TIME ( 10, 59, 4.000000000000000000, #156 ) ;
#114 =( NAMED_UNIT ( * ) PLANE_ANGLE_UNIT ( ) SI_UNIT ( $, .RADIAN. ) );
#115 = EDGE_CURVE ( 'NONE', #7, #35, #21, .T. ) ;
#116 = CARTESIAN_POINT ( 'NONE',  ( 0.0000000000000000000, 0.0000000000000000000, 0.5500000000000000400 ) ) ;
#117 = COORDINATED_UNIVERSAL_TIME_OFFSET ( 5, 0, .BEHIND. ) ;
#118 = PERSON_AND_ORGANIZATION ( #171, #58 ) ;
#119 = CIRCLE ( 'NONE', #2, 5.000000000000000000 ) ;
#120 = DIRECTION ( 'NONE',  ( -0.0000000000000000000, -0.0000000000000000000, -1.000000000000000000 ) ) ;
#121 = ADVANCED_BREP_SHAPE_REPRESENTATION ( '34523_Default', ( #102, #34 ), #172 ) ;
#122 = PERSON_AND_ORGANIZATION ( #171, #58 ) ;
#123 = CARTESIAN_POINT ( 'NONE',  ( -5.000000000000000000, 0.0000000000000000000, 0.5500000000000000400 ) ) ;
#124 = AXIS2_PLACEMENT_3D ( 'NONE', #163, #125, #91 ) ;
#125 = DIRECTION ( 'NONE',  ( -0.0000000000000000000, -0.0000000000000000000, -1.000000000000000000 ) ) ;
#126 = EDGE_LOOP ( 'NONE', ( #127, #103 ) ) ;
#127 = ORIENTED_EDGE ( 'NONE', *, *, #47, .T. ) ;
#128 = DIRECTION ( 'NONE',  ( 0.0000000000000000000, 0.0000000000000000000, 1.000000000000000000 ) ) ;
#129 = DATE_AND_TIME ( #73, #3 ) ;
#130 = EDGE_LOOP ( 'NONE', ( #87, #19 ) ) ;
#131 = CARTESIAN_POINT ( 'NONE',  ( 0.0000000000000000000, 0.0000000000000000000, -0.5500000000000000400 ) ) ;
#132 = CARTESIAN_POINT ( 'NONE',  ( 0.0000000000000000000, 0.0000000000000000000, -0.5500000000000000400 ) ) ;
#133 = CIRCLE ( 'NONE', #94, 5.000000000000000000 ) ;
#134 = ORIENTED_EDGE ( 'NONE', *, *, #64, .F. ) ;
#135 = EDGE_CURVE ( 'NONE', #35, #55, #139, .T. ) ;
#136 =( LENGTH_UNIT ( ) NAMED_UNIT ( * ) SI_UNIT ( .MILLI., .METRE. ) );
#137 = PRODUCT_DEFINITION ( 'UNKNOWN', '', #152, #33 ) ;
#138 = DIRECTION ( 'NONE',  ( -1.000000000000000000, 0.0000000000000000000, 0.0000000000000000000 ) ) ;
#139 = CIRCLE ( 'NONE', #170, 5.000000000000000000 ) ;
#140 = ORIENTED_EDGE ( 'NONE', *, *, #47, .F. ) ;
#141 = APPROVAL ( #154, 'UNSPECIFIED' ) ;
#142 = DATE_AND_TIME ( #1, #62 ) ;
#143 = PERSON_AND_ORGANIZATION_ROLE ( 'classification_officer' ) ;
#144 = PERSON_AND_ORGANIZATION_ROLE ( 'creator' ) ;
#145 = VERTEX_POINT ( 'NONE', #69 ) ;
#146 = SECURITY_CLASSIFICATION ( '', '', #168 ) ;
#147 = ORIENTED_EDGE ( 'NONE', *, *, #115, .T. ) ;
#148 =( NAMED_UNIT ( * ) SI_UNIT ( $, .STERADIAN. ) SOLID_ANGLE_UNIT ( ) );
#149 = PERSON_AND_ORGANIZATION ( #171, #58 ) ;
#150 = APPLICATION_CONTEXT ( 'configuration controlled 3d designs of mechanical parts and assemblies' ) ;
#151 = APPROVAL ( #96, 'UNSPECIFIED' ) ;
#152 = PRODUCT_DEFINITION_FORMATION_WITH_SPECIFIED_SOURCE ( 'ANY', '', #155, .NOT_KNOWN. ) ;
#153 = DIRECTION ( 'NONE',  ( 0.0000000000000000000, 0.0000000000000000000, 1.000000000000000000 ) ) ;
#154 = APPROVAL_STATUS ( 'not_yet_approved' ) ;
#155 = PRODUCT ( '34523_Default', '34523_Default', '', ( #99 ) ) ;
#156 = COORDINATED_UNIVERSAL_TIME_OFFSET ( 5, 0, .BEHIND. ) ;
#157 = CC_DESIGN_APPROVAL ( #141, ( #137 ) ) ;
#158 = CARTESIAN_POINT ( 'NONE',  ( -5.000000000000000000, 0.0000000000000000000, 0.5500000000000000400 ) ) ;
#159 = LINE ( 'NONE', #68, #98 ) ;
#160 = CARTESIAN_POINT ( 'NONE',  ( 0.0000000000000000000, 0.0000000000000000000, 0.5500000000000000400 ) ) ;
#161 = DIRECTION ( 'NONE',  ( -0.0000000000000000000, -0.0000000000000000000, -1.000000000000000000 ) ) ;
#162 = AXIS2_PLACEMENT_3D ( 'NONE', #160, #75, #23 ) ;
#163 = CARTESIAN_POINT ( 'NONE',  ( 0.0000000000000000000, 0.0000000000000000000, 0.5500000000000000400 ) ) ;
#164 = CARTESIAN_POINT ( 'NONE',  ( -5.000000000000000000, 0.0000000000000000000, -0.5500000000000000400 ) ) ;
#165 = ORIENTED_EDGE ( 'NONE', *, *, #109, .T. ) ;
#166 = FACE_OUTER_BOUND ( 'NONE', #126, .T. ) ;
#167 = LOCAL_TIME ( 10, 59, 4.000000000000000000, #117 ) ;
#168 = SECURITY_CLASSIFICATION_LEVEL ( 'unclassified' ) ;
#169 = APPROVAL_PERSON_ORGANIZATION ( #26, #151, #66 ) ;
#170 = AXIS2_PLACEMENT_3D ( 'NONE', #132, #17, #93 ) ;
#171 = PERSON ( 'UNSPECIFIED', 'UNSPECIFIED', 'UNSPECIFIED', ('UNSPECIFIED'), ('UNSPECIFIED'), ('UNSPECIFIED') ) ;
#172 =( GEOMETRIC_REPRESENTATION_CONTEXT ( 3 ) GLOBAL_UNCERTAINTY_ASSIGNED_CONTEXT ( ( #30 ) ) GLOBAL_UNIT_ASSIGNED_CONTEXT ( ( #136, #114, #148 ) ) REPRESENTATION_CONTEXT ( 'NONE', 'WORKASPACE' ) );
#173 = DIRECTION ( 'NONE',  ( 1.000000000000000000, 0.0000000000000000000, 0.0000000000000000000 ) ) ;
#174 = APPLICATION_PROTOCOL_DEFINITION ( 'international standard', 'config_control_design', 1994, #150 ) ;
#175 = ADVANCED_FACE ( 'NONE', ( #106 ), #14, .F. ) ;
ENDSEC;
END-ISO-10303-21;
