ISO-10303-21;
HEADER;
FILE_DESCRIPTION (( 'STEP AP203' ),
    '1' );
FILE_NAME ('Web Model 15402_15420.step',
    '2022-03-11T18:15:42',
    ( '' ),
    ( '' ),
    'SwSTEP 2.0',
    'SolidWorks 2021',
    '' );
FILE_SCHEMA (( 'CONFIG_CONTROL_DESIGN' ));
ENDSEC;

DATA;
#1 = DIRECTION ( 'NONE',  ( 1.000000000000000000, 0.000000000000000000, 0.000000000000000000 ) ) ;
#2 = CARTESIAN_POINT ( 'NONE',  ( 0.7500000000000000000, 0.000000000000000000, 0.000000000000000000 ) ) ;
#3 = ADVANCED_FACE ( 'NONE', ( #165 ), #95, .T. ) ;
#4 = DIRECTION ( 'NONE',  ( 0.000000000000000000, 0.000000000000000000, -1.000000000000000000 ) ) ;
#5 = VECTOR ( 'NONE', #99, 1000.000000000000000 ) ;
#6 = ORIENTED_EDGE ( 'NONE', *, *, #91, .T. ) ;
#7 = APPLICATION_PROTOCOL_DEFINITION ( 'international standard', 'config_control_design', 1994, #138 ) ;
#8 = LINE ( 'NONE', #19, #5 ) ;
#9 = AXIS2_PLACEMENT_3D ( 'NONE', #40, #23, #83 ) ;
#10 = COORDINATED_UNIVERSAL_TIME_OFFSET ( 5, 0, .BEHIND. ) ;
#11 = PRODUCT_RELATED_PRODUCT_CATEGORY ( 'detail', '', ( #167 ) ) ;
#12 = CALENDAR_DATE ( 2022, 11, 3 ) ;
#13 = CC_DESIGN_APPROVAL ( #16, ( #63 ) ) ;
#14 = CC_DESIGN_SECURITY_CLASSIFICATION ( #67, ( #20 ) ) ;
#15 = LOCAL_TIME ( 13, 15, 42.00000000000000000, #161 ) ;
#16 = APPROVAL ( #56, 'UNSPECIFIED' ) ;
#17 = CARTESIAN_POINT ( 'NONE',  ( -0.7500000000000000000, 0.000000000000000000, 6.349999999999999645 ) ) ;
#18 = ORIENTED_EDGE ( 'NONE', *, *, #128, .F. ) ;
#19 = CARTESIAN_POINT ( 'NONE',  ( 0.7500000000000000000, 0.000000000000000000, 6.349999999999999645 ) ) ;
#20 = PRODUCT_DEFINITION_FORMATION_WITH_SPECIFIED_SOURCE ( 'ANY', '', #167, .NOT_KNOWN. ) ;
#21 = CARTESIAN_POINT ( 'NONE',  ( 0.7500000000000000000, 0.000000000000000000, 6.349999999999999645 ) ) ;
#22 = FACE_OUTER_BOUND ( 'NONE', #55, .T. ) ;
#23 = DIRECTION ( 'NONE',  ( 1.000000000000000000, 0.000000000000000000, 0.000000000000000000 ) ) ;
#24 = APPROVAL ( #78, 'UNSPECIFIED' ) ;
#25 = CALENDAR_DATE ( 2022, 11, 3 ) ;
#26 = PERSON_AND_ORGANIZATION_ROLE ( 'creator' ) ;
#27 = CC_DESIGN_PERSON_AND_ORGANIZATION_ASSIGNMENT ( #97, #124, ( #167 ) ) ;
#28 = CARTESIAN_POINT ( 'NONE',  ( 0.000000000000000000, 0.000000000000000000, 0.000000000000000000 ) ) ;
#29 =( GEOMETRIC_REPRESENTATION_CONTEXT ( 3 ) GLOBAL_UNCERTAINTY_ASSIGNED_CONTEXT ( ( #119 ) ) GLOBAL_UNIT_ASSIGNED_CONTEXT ( ( #33, #116, #127 ) ) REPRESENTATION_CONTEXT ( 'NONE', 'WORKASPACE' ) );
#30 = CARTESIAN_POINT ( 'NONE',  ( -0.7500000000000000000, 7.776507174585692163E-16, -6.349999999999999645 ) ) ;
#31 = DIRECTION ( 'NONE',  ( 0.000000000000000000, 0.000000000000000000, 1.000000000000000000 ) ) ;
#32 = PLANE ( 'NONE',  #133 ) ;
#33 =( LENGTH_UNIT ( ) NAMED_UNIT ( * ) SI_UNIT ( .MILLI., .METRE. ) );
#34 = VERTEX_POINT ( 'NONE', #17 ) ;
#35 = CARTESIAN_POINT ( 'NONE',  ( 0.7500000000000000000, 0.000000000000000000, 0.000000000000000000 ) ) ;
#36 = PERSON_AND_ORGANIZATION ( #148, #92 ) ;
#37 = APPROVAL_STATUS ( 'not_yet_approved' ) ;
#38 = CALENDAR_DATE ( 2022, 11, 3 ) ;
#39 = ADVANCED_FACE ( 'NONE', ( #168 ), #32, .F. ) ;
#40 = CARTESIAN_POINT ( 'NONE',  ( -0.7500000000000000000, 0.000000000000000000, 0.000000000000000000 ) ) ;
#41 = LINE ( 'NONE', #100, #125 ) ;
#42 = LOCAL_TIME ( 13, 15, 42.00000000000000000, #117 ) ;
#43 = DIRECTION ( 'NONE',  ( 1.000000000000000000, 0.000000000000000000, 0.000000000000000000 ) ) ;
#44 = DIRECTION ( 'NONE',  ( 0.000000000000000000, 0.000000000000000000, 1.000000000000000000 ) ) ;
#45 = DIRECTION ( 'NONE',  ( 1.000000000000000000, 0.000000000000000000, 0.000000000000000000 ) ) ;
#46 = AXIS2_PLACEMENT_3D ( 'NONE', #122, #43, #4 ) ;
#47 = DIRECTION ( 'NONE',  ( 1.000000000000000000, 0.000000000000000000, 0.000000000000000000 ) ) ;
#48 = PERSON_AND_ORGANIZATION_ROLE ( 'classification_officer' ) ;
#49 = DATE_TIME_ROLE ( 'creation_date' ) ;
#50 = SECURITY_CLASSIFICATION_LEVEL ( 'unclassified' ) ;
#51 = AXIS2_PLACEMENT_3D ( 'NONE', #28, #81, #61 ) ;
#52 = CC_DESIGN_DATE_AND_TIME_ASSIGNMENT ( #90, #145, ( #67 ) ) ;
#53 = DIRECTION ( 'NONE',  ( -1.000000000000000000, -0.000000000000000000, -0.000000000000000000 ) ) ;
#54 = VERTEX_POINT ( 'NONE', #21 ) ;
#55 = EDGE_LOOP ( 'NONE', ( #156, #69 ) ) ;
#56 = APPROVAL_STATUS ( 'not_yet_approved' ) ;
#57 = CIRCLE ( 'NONE', #80, 6.349999999999999645 ) ;
#58 = VERTEX_POINT ( 'NONE', #126 ) ;
#59 = COORDINATED_UNIVERSAL_TIME_OFFSET ( 5, 0, .BEHIND. ) ;
#60 = ORIENTED_EDGE ( 'NONE', *, *, #121, .F. ) ;
#61 = DIRECTION ( 'NONE',  ( 1.000000000000000000, 0.000000000000000000, 0.000000000000000000 ) ) ;
#62 = PRODUCT_DEFINITION_SHAPE ( 'NONE', 'NONE',  #63 ) ;
#63 = PRODUCT_DEFINITION ( 'UNKNOWN', '', #20, #162 ) ;
#64 = FACE_OUTER_BOUND ( 'NONE', #73, .T. ) ;
#65 = PERSON_AND_ORGANIZATION ( #148, #92 ) ;
#66 = EDGE_CURVE ( 'NONE', #34, #169, #57, .T. ) ;
#67 = SECURITY_CLASSIFICATION ( '', '', #50 ) ;
#68 = EDGE_CURVE ( 'NONE', #58, #169, #41, .T. ) ;
#69 = ORIENTED_EDGE ( 'NONE', *, *, #121, .T. ) ;
#70 = PLANE ( 'NONE',  #172 ) ;
#71 = ORIENTED_EDGE ( 'NONE', *, *, #68, .F. ) ;
#72 = LOCAL_TIME ( 13, 15, 42.00000000000000000, #59 ) ;
#73 = EDGE_LOOP ( 'NONE', ( #60, #135, #6, #18 ) ) ;
#74 = DIRECTION ( 'NONE',  ( 0.000000000000000000, 0.000000000000000000, -1.000000000000000000 ) ) ;
#75 = DIRECTION ( 'NONE',  ( 1.000000000000000000, 0.000000000000000000, 0.000000000000000000 ) ) ;
#76 = APPROVAL_ROLE ( '' ) ;
#77 = DATE_AND_TIME ( #160, #42 ) ;
#78 = APPROVAL_STATUS ( 'not_yet_approved' ) ;
#79 = CC_DESIGN_PERSON_AND_ORGANIZATION_ASSIGNMENT ( #158, #104, ( #20 ) ) ;
#80 = AXIS2_PLACEMENT_3D ( 'NONE', #114, #45, #163 ) ;
#81 = DIRECTION ( 'NONE',  ( 0.000000000000000000, 0.000000000000000000, 1.000000000000000000 ) ) ;
#82 = APPROVAL_PERSON_ORGANIZATION ( #36, #24, #76 ) ;
#83 = DIRECTION ( 'NONE',  ( 0.000000000000000000, 0.000000000000000000, -1.000000000000000000 ) ) ;
#84 = CARTESIAN_POINT ( 'NONE',  ( -0.7500000000000000000, 0.000000000000000000, 0.000000000000000000 ) ) ;
#85 = MECHANICAL_CONTEXT ( 'NONE', #130, 'mechanical' ) ;
#86 = DIRECTION ( 'NONE',  ( 0.000000000000000000, 0.000000000000000000, -1.000000000000000000 ) ) ;
#87 = PERSON_AND_ORGANIZATION ( #148, #92 ) ;
#88 = AXIS2_PLACEMENT_3D ( 'NONE', #150, #112, #31 ) ;
#89 = APPROVAL_DATE_TIME ( #77, #157 ) ;
#90 = DATE_AND_TIME ( #38, #15 ) ;
#91 = EDGE_CURVE ( 'NONE', #169, #34, #175, .T. ) ;
#92 = ORGANIZATION ( 'UNSPECIFIED', 'UNSPECIFIED', '' ) ;
#93 = LOCAL_TIME ( 13, 15, 42.00000000000000000, #10 ) ;
#94 = ADVANCED_FACE ( 'NONE', ( #22 ), #70, .T. ) ;
#95 = CYLINDRICAL_SURFACE ( 'NONE', #88, 6.349999999999999645 ) ;
#96 = EDGE_LOOP ( 'NONE', ( #123, #109 ) ) ;
#97 = PERSON_AND_ORGANIZATION ( #148, #92 ) ;
#98 = APPROVAL_ROLE ( '' ) ;
#99 = DIRECTION ( 'NONE',  ( -1.000000000000000000, -0.000000000000000000, -0.000000000000000000 ) ) ;
#100 = CARTESIAN_POINT ( 'NONE',  ( 0.7500000000000000000, 7.776507174585692163E-16, -6.349999999999999645 ) ) ;
#101 = EDGE_CURVE ( 'NONE', #54, #58, #159, .T. ) ;
#102 = DATE_AND_TIME ( #25, #93 ) ;
#103 = AXIS2_PLACEMENT_3D ( 'NONE', #2, #155, #44 ) ;
#104 = PERSON_AND_ORGANIZATION_ROLE ( 'design_supplier' ) ;
#105 = LOCAL_TIME ( 13, 15, 42.00000000000000000, #132 ) ;
#106 = CC_DESIGN_PERSON_AND_ORGANIZATION_ASSIGNMENT ( #173, #26, ( #20 ) ) ;
#107 = EDGE_LOOP ( 'NONE', ( #71, #137, #152, #154 ) ) ;
#108 = APPLICATION_PROTOCOL_DEFINITION ( 'international standard', 'config_control_design', 1994, #130 ) ;
#109 = ORIENTED_EDGE ( 'NONE', *, *, #91, .F. ) ;
#110 = DATE_AND_TIME ( #136, #72 ) ;
#111 = APPROVAL_PERSON_ORGANIZATION ( #65, #157, #118 ) ;
#112 = DIRECTION ( 'NONE',  ( -1.000000000000000000, -0.000000000000000000, -0.000000000000000000 ) ) ;
#113 = PERSON_AND_ORGANIZATION ( #148, #92 ) ;
#114 = CARTESIAN_POINT ( 'NONE',  ( -0.7500000000000000000, 0.000000000000000000, 0.000000000000000000 ) ) ;
#115 = CYLINDRICAL_SURFACE ( 'NONE', #103, 6.349999999999999645 ) ;
#116 =( NAMED_UNIT ( * ) PLANE_ANGLE_UNIT ( ) SI_UNIT ( $, .RADIAN. ) );
#117 = COORDINATED_UNIVERSAL_TIME_OFFSET ( 5, 0, .BEHIND. ) ;
#118 = APPROVAL_ROLE ( '' ) ;
#119 = UNCERTAINTY_MEASURE_WITH_UNIT (LENGTH_MEASURE( 1.000000000000000082E-05 ), #33, 'distance_accuracy_value', 'NONE');
#120 = AXIS2_PLACEMENT_3D ( 'NONE', #129, #47, #74 ) ;
#121 = EDGE_CURVE ( 'NONE', #58, #54, #147, .T. ) ;
#122 = CARTESIAN_POINT ( 'NONE',  ( 0.7500000000000000000, 0.000000000000000000, 0.000000000000000000 ) ) ;
#123 = ORIENTED_EDGE ( 'NONE', *, *, #66, .F. ) ;
#124 = PERSON_AND_ORGANIZATION_ROLE ( 'design_owner' ) ;
#125 = VECTOR ( 'NONE', #53, 1000.000000000000000 ) ;
#126 = CARTESIAN_POINT ( 'NONE',  ( 0.7500000000000000000, 7.776507174585692163E-16, -6.349999999999999645 ) ) ;
#127 =( NAMED_UNIT ( * ) SI_UNIT ( $, .STERADIAN. ) SOLID_ANGLE_UNIT ( ) );
#128 = EDGE_CURVE ( 'NONE', #54, #34, #8, .T. ) ;
#129 = CARTESIAN_POINT ( 'NONE',  ( 0.7500000000000000000, 0.000000000000000000, 0.000000000000000000 ) ) ;
#130 = APPLICATION_CONTEXT ( 'configuration controlled 3d designs of mechanical parts and assemblies' ) ;
#131 = APPROVAL_DATE_TIME ( #174, #24 ) ;
#132 = COORDINATED_UNIVERSAL_TIME_OFFSET ( 5, 0, .BEHIND. ) ;
#133 = AXIS2_PLACEMENT_3D ( 'NONE', #84, #1, #139 ) ;
#134 = CC_DESIGN_PERSON_AND_ORGANIZATION_ASSIGNMENT ( #87, #48, ( #67 ) ) ;
#135 = ORIENTED_EDGE ( 'NONE', *, *, #68, .T. ) ;
#136 = CALENDAR_DATE ( 2022, 11, 3 ) ;
#137 = ORIENTED_EDGE ( 'NONE', *, *, #101, .F. ) ;
#138 = APPLICATION_CONTEXT ( 'configuration controlled 3d designs of mechanical parts and assemblies' ) ;
#139 = DIRECTION ( 'NONE',  ( 0.000000000000000000, 0.000000000000000000, -1.000000000000000000 ) ) ;
#140 = PERSON_AND_ORGANIZATION_ROLE ( 'creator' ) ;
#141 = MANIFOLD_SOLID_BREP ( 'Boss-Extrude1', #170 ) ;
#142 = CC_DESIGN_DATE_AND_TIME_ASSIGNMENT ( #102, #49, ( #63 ) ) ;
#143 = CC_DESIGN_APPROVAL ( #157, ( #20 ) ) ;
#144 = SHAPE_DEFINITION_REPRESENTATION ( #62, #171 ) ;
#145 = DATE_TIME_ROLE ( 'classification_date' ) ;
#146 = ADVANCED_FACE ( 'NONE', ( #64 ), #115, .T. ) ;
#147 = CIRCLE ( 'NONE', #120, 6.349999999999999645 ) ;
#148 = PERSON ( 'UNSPECIFIED', 'UNSPECIFIED', 'UNSPECIFIED', ('UNSPECIFIED'), ('UNSPECIFIED'), ('UNSPECIFIED') ) ;
#149 = CC_DESIGN_PERSON_AND_ORGANIZATION_ASSIGNMENT ( #113, #140, ( #63 ) ) ;
#150 = CARTESIAN_POINT ( 'NONE',  ( 0.7500000000000000000, 0.000000000000000000, 0.000000000000000000 ) ) ;
#151 = CC_DESIGN_APPROVAL ( #24, ( #67 ) ) ;
#152 = ORIENTED_EDGE ( 'NONE', *, *, #128, .T. ) ;
#153 = PERSON_AND_ORGANIZATION ( #148, #92 ) ;
#154 = ORIENTED_EDGE ( 'NONE', *, *, #66, .T. ) ;
#155 = DIRECTION ( 'NONE',  ( -1.000000000000000000, -0.000000000000000000, -0.000000000000000000 ) ) ;
#156 = ORIENTED_EDGE ( 'NONE', *, *, #101, .T. ) ;
#157 = APPROVAL ( #37, 'UNSPECIFIED' ) ;
#158 = PERSON_AND_ORGANIZATION ( #148, #92 ) ;
#159 = CIRCLE ( 'NONE', #46, 6.349999999999999645 ) ;
#160 = CALENDAR_DATE ( 2022, 11, 3 ) ;
#161 = COORDINATED_UNIVERSAL_TIME_OFFSET ( 5, 0, .BEHIND. ) ;
#162 = DESIGN_CONTEXT ( 'detailed design', #138, 'design' ) ;
#163 = DIRECTION ( 'NONE',  ( 0.000000000000000000, 0.000000000000000000, -1.000000000000000000 ) ) ;
#164 = APPROVAL_PERSON_ORGANIZATION ( #153, #16, #98 ) ;
#165 = FACE_OUTER_BOUND ( 'NONE', #107, .T. ) ;
#166 = APPROVAL_DATE_TIME ( #110, #16 ) ;
#167 = PRODUCT ( 'Web Model 15402_15420', 'Web Model 15402_15420', '', ( #85 ) ) ;
#168 = FACE_OUTER_BOUND ( 'NONE', #96, .T. ) ;
#169 = VERTEX_POINT ( 'NONE', #30 ) ;
#170 = CLOSED_SHELL ( 'NONE', ( #146, #3, #94, #39 ) ) ;
#171 = ADVANCED_BREP_SHAPE_REPRESENTATION ( 'Web Model 15402_15420', ( #141, #51 ), #29 ) ;
#172 = AXIS2_PLACEMENT_3D ( 'NONE', #35, #75, #86 ) ;
#173 = PERSON_AND_ORGANIZATION ( #148, #92 ) ;
#174 = DATE_AND_TIME ( #12, #105 ) ;
#175 = CIRCLE ( 'NONE', #9, 6.349999999999999645 ) ;
ENDSEC;
END-ISO-10303-21;
