ISO-10303-21;
HEADER;
FILE_DESCRIPTION (( 'STEP AP203' ),
    '1' );
FILE_NAME ('Web Model 47048_47127.step',
    '2017-06-06T16:57:33',
    ( '' ),
    ( '' ),
    'SwSTEP 2.0',
    'SolidWorks 2016',
    '' );
FILE_SCHEMA (( 'CONFIG_CONTROL_DESIGN' ));
ENDSEC;

DATA;
#1 = MECHANICAL_CONTEXT ( 'NONE', #296, 'mechanical' ) ;
#2 = PRODUCT ( 'Web Model 47048_47127', 'Web Model 47048_47127', '', ( #1 ) ) ;
#3 = DIRECTION ( 'NONE',  ( -1.000000000000000000, 0.0000000000000000000, 0.0000000000000000000 ) ) ;
#4 = AXIS2_PLACEMENT_3D ( 'NONE', #107, #53, #200 ) ;
#5 = LINE ( 'NONE', #123, #150 ) ;
#6 = VECTOR ( 'NONE', #250, 1000.000000000000000 ) ;
#7 = CARTESIAN_POINT ( 'NONE',  ( 0.0000000000000000000, -12.50000000000000000, -12.50000000000000000 ) ) ;
#8 = CARTESIAN_POINT ( 'NONE',  ( -12.50000000000000000, 12.50000000000000000, -12.50000000000000000 ) ) ;
#9 = CARTESIAN_POINT ( 'NONE',  ( 12.50000000000000000, -12.50000000000000000, 12.50000000000000000 ) ) ;
#10 = VECTOR ( 'NONE', #55, 1000.000000000000000 ) ;
#11 = LINE ( 'NONE', #79, #6 ) ;
#12 = DATE_AND_TIME ( #302, #29 ) ;
#13 = ORIENTED_EDGE ( 'NONE', *, *, #265, .T. ) ;
#14 = EDGE_LOOP ( 'NONE', ( #292, #241, #82 ) ) ;
#15 = PLANE ( 'NONE',  #24 ) ;
#16 = CC_DESIGN_APPROVAL ( #319, ( #271 ) ) ;
#17 = VECTOR ( 'NONE', #222, 1000.000000000000100 ) ;
#18 = ORIENTED_EDGE ( 'NONE', *, *, #48, .F. ) ;
#19 = EDGE_CURVE ( 'NONE', #227, #181, #11, .T. ) ;
#20 = ADVANCED_FACE ( 'NONE', ( #32 ), #15, .T. ) ;
#21 = DIRECTION ( 'NONE',  ( -1.000000000000000000, 0.0000000000000000000, 0.0000000000000000000 ) ) ;
#22 = CARTESIAN_POINT ( 'NONE',  ( 12.50000000000000000, 12.50000000000000000, 12.50000000000000000 ) ) ;
#23 = PERSON_AND_ORGANIZATION_ROLE ( 'classification_officer' ) ;
#24 = AXIS2_PLACEMENT_3D ( 'NONE', #133, #161, #284 ) ;
#25 = EDGE_LOOP ( 'NONE', ( #115, #33, #42, #67 ) ) ;
#26 = VERTEX_POINT ( 'NONE', #9 ) ;
#27 = CARTESIAN_POINT ( 'NONE',  ( 0.0000000000000000000, 0.0000000000000000000, 0.0000000000000000000 ) ) ;
#28 = DIRECTION ( 'NONE',  ( 1.000000000000000000, 0.0000000000000000000, 0.0000000000000000000 ) ) ;
#29 = LOCAL_TIME ( 12, 57, 33.00000000000000000, #187 ) ;
#30 = CC_DESIGN_SECURITY_CLASSIFICATION ( #271, ( #184 ) ) ;
#31 = CARTESIAN_POINT ( 'NONE',  ( 12.50000000000000000, -12.50000000000000000, 12.50000000000000000 ) ) ;
#32 = FACE_OUTER_BOUND ( 'NONE', #94, .T. ) ;
#33 = ORIENTED_EDGE ( 'NONE', *, *, #232, .F. ) ;
#34 = EDGE_CURVE ( 'NONE', #286, #81, #185, .T. ) ;
#35 = VERTEX_POINT ( 'NONE', #60 ) ;
#36 = PLANE ( 'NONE',  #188 ) ;
#37 = PLANE ( 'NONE',  #90 ) ;
#38 = ADVANCED_FACE ( 'NONE', ( #190 ), #247, .F. ) ;
#39 = APPROVAL_PERSON_ORGANIZATION ( #141, #121, #75 ) ;
#40 = VERTEX_POINT ( 'NONE', #208 ) ;
#41 = ORIENTED_EDGE ( 'NONE', *, *, #139, .F. ) ;
#42 = ORIENTED_EDGE ( 'NONE', *, *, #215, .F. ) ;
#43 = LINE ( 'NONE', #175, #10 ) ;
#44 = DIRECTION ( 'NONE',  ( -0.0000000000000000000, -0.0000000000000000000, -1.000000000000000000 ) ) ;
#45 = ORIENTED_EDGE ( 'NONE', *, *, #139, .T. ) ;
#46 = PRODUCT_RELATED_PRODUCT_CATEGORY ( 'detail', '', ( #2 ) ) ;
#47 = PERSON_AND_ORGANIZATION_ROLE ( 'creator' ) ;
#48 = EDGE_CURVE ( 'NONE', #285, #286, #277, .T. ) ;
#49 = SECURITY_CLASSIFICATION_LEVEL ( 'unclassified' ) ;
#50 = APPROVAL_PERSON_ORGANIZATION ( #65, #201, #104 ) ;
#51 = DIRECTION ( 'NONE',  ( 1.000000000000000000, 0.0000000000000000000, 0.0000000000000000000 ) ) ;
#52 = VECTOR ( 'NONE', #44, 1000.000000000000000 ) ;
#53 = DIRECTION ( 'NONE',  ( 0.7071067811865475700, 0.7071067811865475700, -0.0000000000000000000 ) ) ;
#54 = CARTESIAN_POINT ( 'NONE',  ( 12.50000000000000000, 0.0000000000000000000, 12.50000000000000000 ) ) ;
#55 = DIRECTION ( 'NONE',  ( 0.0000000000000000000, 1.000000000000000000, -0.0000000000000000000 ) ) ;
#56 = LINE ( 'NONE', #111, #229 ) ;
#57 = VECTOR ( 'NONE', #203, 1000.000000000000000 ) ;
#58 = CARTESIAN_POINT ( 'NONE',  ( 0.0000000000000000000, -12.50000000000000000, 12.50000000000000000 ) ) ;
#59 = AXIS2_PLACEMENT_3D ( 'NONE', #256, #309, #199 ) ;
#60 = CARTESIAN_POINT ( 'NONE',  ( -12.50000000000000000, -12.50000000000000000, -12.50000000000000000 ) ) ;
#61 = DATE_AND_TIME ( #68, #156 ) ;
#62 = LINE ( 'NONE', #96, #17 ) ;
#63 = VECTOR ( 'NONE', #77, 1000.000000000000000 ) ;
#64 = ADVANCED_FACE ( 'NONE', ( #219 ), #37, .T. ) ;
#65 = PERSON_AND_ORGANIZATION ( #258, #205 ) ;
#66 = EDGE_CURVE ( 'NONE', #35, #286, #194, .T. ) ;
#67 = ORIENTED_EDGE ( 'NONE', *, *, #153, .T. ) ;
#68 = CALENDAR_DATE ( 2017, 6, 6 ) ;
#69 = AXIS2_PLACEMENT_3D ( 'NONE', #27, #178, #152 ) ;
#70 = CARTESIAN_POINT ( 'NONE',  ( 12.50000000000000000, 12.50000000000000000, -12.50000000000000000 ) ) ;
#71 = CARTESIAN_POINT ( 'NONE',  ( 0.0000000000000000000, -12.50000000000000000, 12.50000000000000000 ) ) ;
#72 = DIRECTION ( 'NONE',  ( 0.7071067811865475700, 0.7071067811865475700, -0.0000000000000000000 ) ) ;
#73 = EDGE_LOOP ( 'NONE', ( #182, #18, #243, #257 ) ) ;
#74 = ORIENTED_EDGE ( 'NONE', *, *, #166, .F. ) ;
#75 = APPROVAL_ROLE ( '' ) ;
#76 = APPLICATION_PROTOCOL_DEFINITION ( 'international standard', 'config_control_design', 1994, #296 ) ;
#77 = DIRECTION ( 'NONE',  ( 0.0000000000000000000, 1.000000000000000000, -0.0000000000000000000 ) ) ;
#78 = APPROVAL_STATUS ( 'not_yet_approved' ) ;
#79 = CARTESIAN_POINT ( 'NONE',  ( 12.50000000000000000, 12.50000000000000000, 12.50000000000000000 ) ) ;
#80 = VECTOR ( 'NONE', #230, 1000.000000000000000 ) ;
#81 = VERTEX_POINT ( 'NONE', #234 ) ;
#82 = ORIENTED_EDGE ( 'NONE', *, *, #265, .F. ) ;
#83 = EDGE_CURVE ( 'NONE', #291, #181, #159, .T. ) ;
#84 = PLANE ( 'NONE',  #162 ) ;
#85 = DIRECTION ( 'NONE',  ( -0.0000000000000000000, 0.0000000000000000000, 1.000000000000000000 ) ) ;
#86 = FACE_OUTER_BOUND ( 'NONE', #142, .T. ) ;
#87 = DESIGN_CONTEXT ( 'detailed design', #273, 'design' ) ;
#88 = CC_DESIGN_PERSON_AND_ORGANIZATION_ASSIGNMENT ( #236, #125, ( #2 ) ) ;
#89 = MANIFOLD_SOLID_BREP ( 'Boss-Extrude2', #137 ) ;
#90 = AXIS2_PLACEMENT_3D ( 'NONE', #299, #85, #51 ) ;
#91 = ORIENTED_EDGE ( 'NONE', *, *, #83, .F. ) ;
#92 = DIRECTION ( 'NONE',  ( 0.0000000000000000000, 1.000000000000000000, 0.0000000000000000000 ) ) ;
#93 = PERSON_AND_ORGANIZATION ( #258, #205 ) ;
#94 = EDGE_LOOP ( 'NONE', ( #138, #218, #294 ) ) ;
#95 = EDGE_LOOP ( 'NONE', ( #41, #146, #13, #290 ) ) ;
#96 = CARTESIAN_POINT ( 'NONE',  ( 0.0000000000000000000, 0.0000000000000000000, 12.50000000000000000 ) ) ;
#97 = APPLICATION_PROTOCOL_DEFINITION ( 'international standard', 'config_control_design', 1994, #273 ) ;
#98 = EDGE_CURVE ( 'NONE', #35, #81, #321, .T. ) ;
#99 = DIRECTION ( 'NONE',  ( 1.000000000000000000, 0.0000000000000000000, 0.0000000000000000000 ) ) ;
#100 = DATE_TIME_ROLE ( 'classification_date' ) ;
#101 = FACE_OUTER_BOUND ( 'NONE', #95, .T. ) ;
#102 = VECTOR ( 'NONE', #233, 1000.000000000000100 ) ;
#103 = DIRECTION ( 'NONE',  ( 0.0000000000000000000, 1.000000000000000000, 0.0000000000000000000 ) ) ;
#104 = APPROVAL_ROLE ( '' ) ;
#105 = PRODUCT_DEFINITION ( 'UNKNOWN', '', #184, #87 ) ;
#106 = LINE ( 'NONE', #202, #116 ) ;
#107 = CARTESIAN_POINT ( 'NONE',  ( 0.0000000000000000000, 0.0000000000000000000, 12.50000000000000000 ) ) ;
#108 = ORIENTED_EDGE ( 'NONE', *, *, #166, .T. ) ;
#109 = CLOSED_SHELL ( 'NONE', ( #315, #119, #238, #64, #264 ) ) ;
#110 = DIRECTION ( 'NONE',  ( -0.0000000000000000000, 0.0000000000000000000, 1.000000000000000000 ) ) ;
#111 = CARTESIAN_POINT ( 'NONE',  ( -0.0000000000000000000, 12.50000000000000000, -12.50000000000000000 ) ) ;
#112 = ADVANCED_BREP_SHAPE_REPRESENTATION ( 'Web Model 47048_47127', ( #89, #211, #69 ), #310 ) ;
#113 = LINE ( 'NONE', #71, #179 ) ;
#114 = LINE ( 'NONE', #148, #52 ) ;
#115 = ORIENTED_EDGE ( 'NONE', *, *, #98, .T. ) ;
#116 = VECTOR ( 'NONE', #28, 1000.000000000000000 ) ;
#117 = EDGE_CURVE ( 'NONE', #40, #285, #43, .T. ) ;
#118 = SHAPE_DEFINITION_REPRESENTATION ( #262, #112 ) ;
#119 = ADVANCED_FACE ( 'NONE', ( #176 ), #246, .F. ) ;
#120 = COORDINATED_UNIVERSAL_TIME_OFFSET ( 5, 0, .BEHIND. ) ;
#121 = APPROVAL ( #242, 'UNSPECIFIED' ) ;
#122 = CARTESIAN_POINT ( 'NONE',  ( -12.50000000000000000, 0.0000000000000000000, 12.50000000000000000 ) ) ;
#123 = CARTESIAN_POINT ( 'NONE',  ( 0.0000000000000000000, 0.0000000000000000000, 12.50000000000000000 ) ) ;
#124 = APPROVAL_PERSON_ORGANIZATION ( #267, #319, #274 ) ;
#125 = PERSON_AND_ORGANIZATION_ROLE ( 'design_owner' ) ;
#126 = CARTESIAN_POINT ( 'NONE',  ( -12.50000000000000000, 0.0000000000000000000, -12.50000000000000000 ) ) ;
#127 = AXIS2_PLACEMENT_3D ( 'NONE', #135, #3, #311 ) ;
#128 = APPROVAL_DATE_TIME ( #289, #121 ) ;
#129 = PERSON_AND_ORGANIZATION ( #258, #205 ) ;
#130 = EDGE_LOOP ( 'NONE', ( #314, #192, #145, #306 ) ) ;
#131 =( NAMED_UNIT ( * ) PLANE_ANGLE_UNIT ( ) SI_UNIT ( $, .RADIAN. ) );
#132 = CARTESIAN_POINT ( 'NONE',  ( 12.50000000000000000, -12.50000000000000000, -12.50000000000000000 ) ) ;
#133 = CARTESIAN_POINT ( 'NONE',  ( 0.0000000000000000000, 0.0000000000000000000, 12.50000000000000000 ) ) ;
#134 = PLANE ( 'NONE',  #293 ) ;
#135 = CARTESIAN_POINT ( 'NONE',  ( 12.50000000000000000, 0.0000000000000000000, 12.50000000000000000 ) ) ;
#136 = DATE_AND_TIME ( #183, #168 ) ;
#137 = CLOSED_SHELL ( 'NONE', ( #214, #144, #165, #20, #38 ) ) ;
#138 = ORIENTED_EDGE ( 'NONE', *, *, #117, .F. ) ;
#139 = EDGE_CURVE ( 'NONE', #231, #181, #56, .T. ) ;
#140 = VERTEX_POINT ( 'NONE', #31 ) ;
#141 = PERSON_AND_ORGANIZATION ( #258, #205 ) ;
#142 = EDGE_LOOP ( 'NONE', ( #74, #45, #91 ) ) ;
#143 = CC_DESIGN_APPROVAL ( #121, ( #105 ) ) ;
#144 = ADVANCED_FACE ( 'NONE', ( #186 ), #84, .F. ) ;
#145 = ORIENTED_EDGE ( 'NONE', *, *, #117, .T. ) ;
#146 = ORIENTED_EDGE ( 'NONE', *, *, #196, .F. ) ;
#147 = ORIENTED_EDGE ( 'NONE', *, *, #83, .T. ) ;
#148 = CARTESIAN_POINT ( 'NONE',  ( -12.50000000000000000, 12.50000000000000000, 12.50000000000000000 ) ) ;
#149 = CARTESIAN_POINT ( 'NONE',  ( -12.50000000000000000, 12.50000000000000000, 12.50000000000000000 ) ) ;
#150 = VECTOR ( 'NONE', #318, 1000.000000000000100 ) ;
#151 = CARTESIAN_POINT ( 'NONE',  ( 12.50000000000000000, -12.50000000000000000, 12.50000000000000000 ) ) ;
#152 = DIRECTION ( 'NONE',  ( 1.000000000000000000, 0.0000000000000000000, 0.0000000000000000000 ) ) ;
#153 = EDGE_CURVE ( 'NONE', #40, #35, #163, .T. ) ;
#154 = DIRECTION ( 'NONE',  ( 0.0000000000000000000, 1.000000000000000000, -0.0000000000000000000 ) ) ;
#155 = DIRECTION ( 'NONE',  ( -0.0000000000000000000, -0.0000000000000000000, -1.000000000000000000 ) ) ;
#156 = LOCAL_TIME ( 12, 57, 33.00000000000000000, #120 ) ;
#157 = CC_DESIGN_PERSON_AND_ORGANIZATION_ASSIGNMENT ( #212, #47, ( #105 ) ) ;
#158 = PLANE ( 'NONE',  #4 ) ;
#159 = LINE ( 'NONE', #174, #275 ) ;
#160 = UNCERTAINTY_MEASURE_WITH_UNIT (LENGTH_MEASURE( 1.000000000000000100E-005 ), #301, 'distance_accuracy_value', 'NONE');
#161 = DIRECTION ( 'NONE',  ( -0.0000000000000000000, 0.0000000000000000000, 1.000000000000000000 ) ) ;
#162 = AXIS2_PLACEMENT_3D ( 'NONE', #58, #103, #287 ) ;
#163 = LINE ( 'NONE', #279, #198 ) ;
#164 = LOCAL_TIME ( 12, 57, 33.00000000000000000, #276 ) ;
#165 = ADVANCED_FACE ( 'NONE', ( #260 ), #36, .T. ) ;
#166 = EDGE_CURVE ( 'NONE', #231, #291, #303, .T. ) ;
#167 = DIRECTION ( 'NONE',  ( -0.0000000000000000000, -0.0000000000000000000, -1.000000000000000000 ) ) ;
#168 = LOCAL_TIME ( 12, 57, 33.00000000000000000, #266 ) ;
#169 = CC_DESIGN_DATE_AND_TIME_ASSIGNMENT ( #136, #173, ( #105 ) ) ;
#170 = CARTESIAN_POINT ( 'NONE',  ( 0.0000000000000000000, 0.0000000000000000000, -12.50000000000000000 ) ) ;
#171 = VERTEX_POINT ( 'NONE', #149 ) ;
#172 = CARTESIAN_POINT ( 'NONE',  ( 0.0000000000000000000, 12.50000000000000000, 12.50000000000000000 ) ) ;
#173 = DATE_TIME_ROLE ( 'creation_date' ) ;
#174 = CARTESIAN_POINT ( 'NONE',  ( 12.50000000000000000, 0.0000000000000000000, -12.50000000000000000 ) ) ;
#175 = CARTESIAN_POINT ( 'NONE',  ( -12.50000000000000000, 0.0000000000000000000, 12.50000000000000000 ) ) ;
#176 = FACE_OUTER_BOUND ( 'NONE', #213, .T. ) ;
#177 = CALENDAR_DATE ( 2017, 6, 6 ) ;
#178 = DIRECTION ( 'NONE',  ( 0.0000000000000000000, 0.0000000000000000000, 1.000000000000000000 ) ) ;
#179 = VECTOR ( 'NONE', #295, 1000.000000000000000 ) ;
#180 = EDGE_CURVE ( 'NONE', #171, #26, #5, .T. ) ;
#181 = VERTEX_POINT ( 'NONE', #70 ) ;
#182 = ORIENTED_EDGE ( 'NONE', *, *, #34, .F. ) ;
#183 = CALENDAR_DATE ( 2017, 6, 6 ) ;
#184 = PRODUCT_DEFINITION_FORMATION_WITH_SPECIFIED_SOURCE ( 'ANY', '', #2, .NOT_KNOWN. ) ;
#185 = LINE ( 'NONE', #207, #102 ) ;
#186 = FACE_OUTER_BOUND ( 'NONE', #25, .T. ) ;
#187 = COORDINATED_UNIVERSAL_TIME_OFFSET ( 5, 0, .BEHIND. ) ;
#188 = AXIS2_PLACEMENT_3D ( 'NONE', #316, #72, #224 ) ;
#189 = LINE ( 'NONE', #280, #313 ) ;
#190 = FACE_OUTER_BOUND ( 'NONE', #209, .T. ) ;
#191 = DIRECTION ( 'NONE',  ( 0.7071067811865474600, -0.7071067811865474600, 0.0000000000000000000 ) ) ;
#192 = ORIENTED_EDGE ( 'NONE', *, *, #153, .F. ) ;
#193 = PLANE ( 'NONE',  #228 ) ;
#194 = LINE ( 'NONE', #126, #63 ) ;
#195 = PERSON_AND_ORGANIZATION_ROLE ( 'creator' ) ;
#196 = EDGE_CURVE ( 'NONE', #171, #231, #114, .T. ) ;
#197 = APPROVAL_DATE_TIME ( #12, #319 ) ;
#198 = VECTOR ( 'NONE', #155, 1000.000000000000000 ) ;
#199 = DIRECTION ( 'NONE',  ( 1.000000000000000000, 0.0000000000000000000, 0.0000000000000000000 ) ) ;
#200 = DIRECTION ( 'NONE',  ( -0.7071067811865474600, 0.7071067811865474600, 0.0000000000000000000 ) ) ;
#201 = APPROVAL ( #226, 'UNSPECIFIED' ) ;
#202 = CARTESIAN_POINT ( 'NONE',  ( 0.0000000000000000000, 12.50000000000000000, 12.50000000000000000 ) ) ;
#203 = DIRECTION ( 'NONE',  ( 1.000000000000000000, 0.0000000000000000000, 0.0000000000000000000 ) ) ;
#204 = DIRECTION ( 'NONE',  ( -0.0000000000000000000, -0.0000000000000000000, -1.000000000000000000 ) ) ;
#205 = ORGANIZATION ( 'UNSPECIFIED', 'UNSPECIFIED', '' ) ;
#206 = ORIENTED_EDGE ( 'NONE', *, *, #34, .T. ) ;
#207 = CARTESIAN_POINT ( 'NONE',  ( -0.0000000000000000000, 0.0000000000000000000, -12.50000000000000000 ) ) ;
#208 = CARTESIAN_POINT ( 'NONE',  ( -12.50000000000000000, -12.50000000000000000, 12.50000000000000000 ) ) ;
#209 = EDGE_LOOP ( 'NONE', ( #269, #206, #282 ) ) ;
#210 = CARTESIAN_POINT ( 'NONE',  ( -12.50000000000000000, 12.50000000000000000, 12.50000000000000000 ) ) ;
#211 = MANIFOLD_SOLID_BREP ( 'Boss-Extrude3', #109 ) ;
#212 = PERSON_AND_ORGANIZATION ( #258, #205 ) ;
#213 = EDGE_LOOP ( 'NONE', ( #147, #261, #268, #255 ) ) ;
#214 = ADVANCED_FACE ( 'NONE', ( #249 ), #193, .T. ) ;
#215 = EDGE_CURVE ( 'NONE', #40, #140, #113, .T. ) ;
#216 = FACE_OUTER_BOUND ( 'NONE', #217, .T. ) ;
#217 = EDGE_LOOP ( 'NONE', ( #108, #223, #308, #300 ) ) ;
#218 = ORIENTED_EDGE ( 'NONE', *, *, #215, .T. ) ;
#219 = FACE_OUTER_BOUND ( 'NONE', #14, .T. ) ;
#220 = CARTESIAN_POINT ( 'NONE',  ( -0.0000000000000000000, 0.0000000000000000000, -12.50000000000000000 ) ) ;
#221 = CC_DESIGN_APPROVAL ( #201, ( #184 ) ) ;
#222 = DIRECTION ( 'NONE',  ( 0.7071067811865474600, -0.7071067811865474600, 0.0000000000000000000 ) ) ;
#223 = ORIENTED_EDGE ( 'NONE', *, *, #298, .F. ) ;
#224 = DIRECTION ( 'NONE',  ( -0.7071067811865474600, 0.7071067811865474600, 0.0000000000000000000 ) ) ;
#225 = CARTESIAN_POINT ( 'NONE',  ( -12.50000000000000000, 12.50000000000000000, 12.50000000000000000 ) ) ;
#226 = APPROVAL_STATUS ( 'not_yet_approved' ) ;
#227 = VERTEX_POINT ( 'NONE', #22 ) ;
#228 = AXIS2_PLACEMENT_3D ( 'NONE', #122, #21, #270 ) ;
#229 = VECTOR ( 'NONE', #99, 1000.000000000000000 ) ;
#230 = DIRECTION ( 'NONE',  ( 0.0000000000000000000, 1.000000000000000000, -0.0000000000000000000 ) ) ;
#231 = VERTEX_POINT ( 'NONE', #239 ) ;
#232 = EDGE_CURVE ( 'NONE', #140, #81, #263, .T. ) ;
#233 = DIRECTION ( 'NONE',  ( 0.7071067811865474600, -0.7071067811865474600, 0.0000000000000000000 ) ) ;
#234 = CARTESIAN_POINT ( 'NONE',  ( 12.50000000000000000, -12.50000000000000000, -12.50000000000000000 ) ) ;
#235 = LINE ( 'NONE', #54, #80 ) ;
#236 = PERSON_AND_ORGANIZATION ( #258, #205 ) ;
#237 = CC_DESIGN_PERSON_AND_ORGANIZATION_ASSIGNMENT ( #93, #195, ( #184 ) ) ;
#238 = ADVANCED_FACE ( 'NONE', ( #101 ), #320, .T. ) ;
#239 = CARTESIAN_POINT ( 'NONE',  ( -12.50000000000000000, 12.50000000000000000, -12.50000000000000000 ) ) ;
#240 = VECTOR ( 'NONE', #167, 1000.000000000000000 ) ;
#241 = ORIENTED_EDGE ( 'NONE', *, *, #283, .T. ) ;
#242 = APPROVAL_STATUS ( 'not_yet_approved' ) ;
#243 = ORIENTED_EDGE ( 'NONE', *, *, #244, .T. ) ;
#244 = EDGE_CURVE ( 'NONE', #285, #140, #62, .T. ) ;
#245 = VECTOR ( 'NONE', #204, 1000.000000000000000 ) ;
#246 = PLANE ( 'NONE',  #127 ) ;
#247 = PLANE ( 'NONE',  #59 ) ;
#248 = PERSON_AND_ORGANIZATION_ROLE ( 'design_supplier' ) ;
#249 = FACE_OUTER_BOUND ( 'NONE', #130, .T. ) ;
#250 = DIRECTION ( 'NONE',  ( -0.0000000000000000000, -0.0000000000000000000, -1.000000000000000000 ) ) ;
#251 = APPROVAL_DATE_TIME ( #61, #201 ) ;
#252 = DIRECTION ( 'NONE',  ( -0.0000000000000000000, -0.0000000000000000000, -1.000000000000000000 ) ) ;
#253 = CC_DESIGN_PERSON_AND_ORGANIZATION_ASSIGNMENT ( #304, #248, ( #184 ) ) ;
#254 = DIRECTION ( 'NONE',  ( 1.000000000000000000, 0.0000000000000000000, 0.0000000000000000000 ) ) ;
#255 = ORIENTED_EDGE ( 'NONE', *, *, #298, .T. ) ;
#256 = CARTESIAN_POINT ( 'NONE',  ( 0.0000000000000000000, 0.0000000000000000000, -12.50000000000000000 ) ) ;
#257 = ORIENTED_EDGE ( 'NONE', *, *, #232, .T. ) ;
#258 = PERSON ( 'UNSPECIFIED', 'UNSPECIFIED', 'UNSPECIFIED', ('UNSPECIFIED'), ('UNSPECIFIED'), ('UNSPECIFIED') ) ;
#259 = AXIS2_PLACEMENT_3D ( 'NONE', #172, #92, #272 ) ;
#260 = FACE_OUTER_BOUND ( 'NONE', #73, .T. ) ;
#261 = ORIENTED_EDGE ( 'NONE', *, *, #19, .F. ) ;
#262 = PRODUCT_DEFINITION_SHAPE ( 'NONE', 'NONE',  #105 ) ;
#263 = LINE ( 'NONE', #151, #240 ) ;
#264 = ADVANCED_FACE ( 'NONE', ( #86 ), #134, .F. ) ;
#265 = EDGE_CURVE ( 'NONE', #171, #227, #106, .T. ) ;
#266 = COORDINATED_UNIVERSAL_TIME_OFFSET ( 5, 0, .BEHIND. ) ;
#267 = PERSON_AND_ORGANIZATION ( #258, #205 ) ;
#268 = ORIENTED_EDGE ( 'NONE', *, *, #283, .F. ) ;
#269 = ORIENTED_EDGE ( 'NONE', *, *, #66, .T. ) ;
#270 = DIRECTION ( 'NONE',  ( 0.0000000000000000000, 0.0000000000000000000, 1.000000000000000000 ) ) ;
#271 = SECURITY_CLASSIFICATION ( '', '', #49 ) ;
#272 = DIRECTION ( 'NONE',  ( 0.0000000000000000000, -0.0000000000000000000, 1.000000000000000000 ) ) ;
#273 = APPLICATION_CONTEXT ( 'configuration controlled 3d designs of mechanical parts and assemblies' ) ;
#274 = APPROVAL_ROLE ( '' ) ;
#275 = VECTOR ( 'NONE', #154, 1000.000000000000000 ) ;
#276 = COORDINATED_UNIVERSAL_TIME_OFFSET ( 5, 0, .BEHIND. ) ;
#277 = LINE ( 'NONE', #210, #245 ) ;
#278 =( NAMED_UNIT ( * ) SI_UNIT ( $, .STERADIAN. ) SOLID_ANGLE_UNIT ( ) );
#279 = CARTESIAN_POINT ( 'NONE',  ( -12.50000000000000000, -12.50000000000000000, 12.50000000000000000 ) ) ;
#280 = CARTESIAN_POINT ( 'NONE',  ( 12.50000000000000000, -12.50000000000000000, 12.50000000000000000 ) ) ;
#281 = COORDINATED_UNIVERSAL_TIME_OFFSET ( 5, 0, .BEHIND. ) ;
#282 = ORIENTED_EDGE ( 'NONE', *, *, #98, .F. ) ;
#283 = EDGE_CURVE ( 'NONE', #26, #227, #235, .T. ) ;
#284 = DIRECTION ( 'NONE',  ( 1.000000000000000000, 0.0000000000000000000, 0.0000000000000000000 ) ) ;
#285 = VERTEX_POINT ( 'NONE', #225 ) ;
#286 = VERTEX_POINT ( 'NONE', #8 ) ;
#287 = DIRECTION ( 'NONE',  ( 0.0000000000000000000, -0.0000000000000000000, 1.000000000000000000 ) ) ;
#288 = CC_DESIGN_PERSON_AND_ORGANIZATION_ASSIGNMENT ( #129, #23, ( #271 ) ) ;
#289 = DATE_AND_TIME ( #177, #164 ) ;
#290 = ORIENTED_EDGE ( 'NONE', *, *, #19, .T. ) ;
#291 = VERTEX_POINT ( 'NONE', #132 ) ;
#292 = ORIENTED_EDGE ( 'NONE', *, *, #180, .T. ) ;
#293 = AXIS2_PLACEMENT_3D ( 'NONE', #170, #110, #254 ) ;
#294 = ORIENTED_EDGE ( 'NONE', *, *, #244, .F. ) ;
#295 = DIRECTION ( 'NONE',  ( 1.000000000000000000, 0.0000000000000000000, 0.0000000000000000000 ) ) ;
#296 = APPLICATION_CONTEXT ( 'configuration controlled 3d designs of mechanical parts and assemblies' ) ;
#297 = VECTOR ( 'NONE', #191, 1000.000000000000100 ) ;
#298 = EDGE_CURVE ( 'NONE', #26, #291, #189, .T. ) ;
#299 = CARTESIAN_POINT ( 'NONE',  ( 0.0000000000000000000, 0.0000000000000000000, 12.50000000000000000 ) ) ;
#300 = ORIENTED_EDGE ( 'NONE', *, *, #196, .T. ) ;
#301 =( LENGTH_UNIT ( ) NAMED_UNIT ( * ) SI_UNIT ( .MILLI., .METRE. ) );
#302 = CALENDAR_DATE ( 2017, 6, 6 ) ;
#303 = LINE ( 'NONE', #220, #297 ) ;
#304 = PERSON_AND_ORGANIZATION ( #258, #205 ) ;
#305 = CC_DESIGN_DATE_AND_TIME_ASSIGNMENT ( #317, #100, ( #271 ) ) ;
#306 = ORIENTED_EDGE ( 'NONE', *, *, #48, .T. ) ;
#307 = CALENDAR_DATE ( 2017, 6, 6 ) ;
#308 = ORIENTED_EDGE ( 'NONE', *, *, #180, .F. ) ;
#309 = DIRECTION ( 'NONE',  ( -0.0000000000000000000, 0.0000000000000000000, 1.000000000000000000 ) ) ;
#310 =( GEOMETRIC_REPRESENTATION_CONTEXT ( 3 ) GLOBAL_UNCERTAINTY_ASSIGNED_CONTEXT ( ( #160 ) ) GLOBAL_UNIT_ASSIGNED_CONTEXT ( ( #301, #131, #278 ) ) REPRESENTATION_CONTEXT ( 'NONE', 'WORKASPACE' ) );
#311 = DIRECTION ( 'NONE',  ( 0.0000000000000000000, 0.0000000000000000000, 1.000000000000000000 ) ) ;
#312 = LOCAL_TIME ( 12, 57, 33.00000000000000000, #281 ) ;
#313 = VECTOR ( 'NONE', #252, 1000.000000000000000 ) ;
#314 = ORIENTED_EDGE ( 'NONE', *, *, #66, .F. ) ;
#315 = ADVANCED_FACE ( 'NONE', ( #216 ), #158, .F. ) ;
#316 = CARTESIAN_POINT ( 'NONE',  ( 0.0000000000000000000, 0.0000000000000000000, 12.50000000000000000 ) ) ;
#317 = DATE_AND_TIME ( #307, #312 ) ;
#318 = DIRECTION ( 'NONE',  ( 0.7071067811865474600, -0.7071067811865474600, 0.0000000000000000000 ) ) ;
#319 = APPROVAL ( #78, 'UNSPECIFIED' ) ;
#320 = PLANE ( 'NONE',  #259 ) ;
#321 = LINE ( 'NONE', #7, #57 ) ;
ENDSEC;
END-ISO-10303-21;
