ISO-10303-21;
HEADER;
FILE_DESCRIPTION (( 'STEP AP203' ),
    '1' );
FILE_NAME ('ISP Wedged Parts_16809.step',
    '2021-01-13T16:35:44',
    ( '' ),
    ( '' ),
    'SwSTEP 2.0',
    'SolidWorks 2018',
    '' );
FILE_SCHEMA (( 'CONFIG_CONTROL_DESIGN' ));
ENDSEC;

DATA;
#1 = VECTOR ( 'NONE', #43, 1000.000000000000000 ) ;
#2 = CARTESIAN_POINT ( 'NONE',  ( -12.69999999999999929, -12.69999999999999929, 0.2216624418850841882 ) ) ;
#3 = AXIS2_PLACEMENT_3D ( 'NONE', #7, #127, #69 ) ;
#4 = CARTESIAN_POINT ( 'NONE',  ( -12.69999999999999929, 0.0000000000000000000, 0.1108312209425420802 ) ) ;
#5 =( GEOMETRIC_REPRESENTATION_CONTEXT ( 3 ) GLOBAL_UNCERTAINTY_ASSIGNED_CONTEXT ( ( #164 ) ) GLOBAL_UNIT_ASSIGNED_CONTEXT ( ( #107, #94, #140 ) ) REPRESENTATION_CONTEXT ( 'NONE', 'WORKASPACE' ) );
#6 = COORDINATED_UNIVERSAL_TIME_OFFSET ( 5, 0, .BEHIND. ) ;
#7 = CARTESIAN_POINT ( 'NONE',  ( 0.0000000000000000000, 0.0000000000000000000, 4.000000000000000000 ) ) ;
#8 = DIRECTION ( 'NONE',  ( -1.000000000000000000, 0.0000000000000000000, 0.0000000000000000000 ) ) ;
#9 = EDGE_CURVE ( 'NONE', #21, #52, #135, .T. ) ;
#10 = ORIENTED_EDGE ( 'NONE', *, *, #9, .F. ) ;
#11 = LOCAL_TIME ( 11, 35, 44.00000000000000000, #110 ) ;
#12 = AXIS2_PLACEMENT_3D ( 'NONE', #170, #53, #172 ) ;
#13 = ORIENTED_EDGE ( 'NONE', *, *, #149, .T. ) ;
#14 = ORIENTED_EDGE ( 'NONE', *, *, #61, .F. ) ;
#15 = DATE_AND_TIME ( #80, #157 ) ;
#16 = FACE_OUTER_BOUND ( 'NONE', #166, .T. ) ;
#17 = DATE_AND_TIME ( #118, #168 ) ;
#18 = APPROVAL_PERSON_ORGANIZATION ( #103, #158, #59 ) ;
#19 = COORDINATED_UNIVERSAL_TIME_OFFSET ( 5, 0, .BEHIND. ) ;
#20 = APPLICATION_CONTEXT ( 'configuration controlled 3d designs of mechanical parts and assemblies' ) ;
#21 = VERTEX_POINT ( 'NONE', #165 ) ;
#22 = DIRECTION ( 'NONE',  ( 0.0000000000000000000, 0.0000000000000000000, 1.000000000000000000 ) ) ;
#23 = CARTESIAN_POINT ( 'NONE',  ( 12.69999999999999929, -25.39999999999999858, 0.3324936628276262129 ) ) ;
#24 = DIRECTION ( 'NONE',  ( 1.000000000000000000, 0.0000000000000000000, 0.0000000000000000000 ) ) ;
#25 = PERSON_AND_ORGANIZATION ( #147, #144 ) ;
#26 = ORIENTED_EDGE ( 'NONE', *, *, #93, .F. ) ;
#27 = PRODUCT_RELATED_PRODUCT_CATEGORY ( 'detail', '', ( #101 ) ) ;
#28 = PERSON_AND_ORGANIZATION_ROLE ( 'creator' ) ;
#29 = ORIENTED_EDGE ( 'NONE', *, *, #9, .T. ) ;
#30 = DIRECTION ( 'NONE',  ( 0.0000000000000000000, 0.008726535498366494448, 0.9999619230641714207 ) ) ;
#31 = CC_DESIGN_SECURITY_CLASSIFICATION ( #38, ( #95 ) ) ;
#32 = CARTESIAN_POINT ( 'NONE',  ( 12.69999999999999929, 1.555301434917138433E-15, 0.1108312209425420802 ) ) ;
#33 = ORIENTED_EDGE ( 'NONE', *, *, #163, .F. ) ;
#34 = PERSON_AND_ORGANIZATION_ROLE ( 'creator' ) ;
#35 = APPLICATION_CONTEXT ( 'configuration controlled 3d designs of mechanical parts and assemblies' ) ;
#36 = MECHANICAL_CONTEXT ( 'NONE', #35, 'mechanical' ) ;
#37 = APPLICATION_PROTOCOL_DEFINITION ( 'international standard', 'config_control_design', 1994, #35 ) ;
#38 = SECURITY_CLASSIFICATION ( '', '', #142 ) ;
#39 = CARTESIAN_POINT ( 'NONE',  ( -12.69999999999999929, 0.0000000000000000000, 0.1108312209425420802 ) ) ;
#40 = ADVANCED_FACE ( 'NONE', ( #96 ), #63, .F. ) ;
#41 = CALENDAR_DATE ( 2021, 13, 1 ) ;
#42 = DIRECTION ( 'NONE',  ( 0.0000000000000000000, -0.9999619230641713097, 0.008726535498366492713 ) ) ;
#43 = DIRECTION ( 'NONE',  ( -0.0000000000000000000, -0.0000000000000000000, -1.000000000000000000 ) ) ;
#44 = PRODUCT_DEFINITION ( 'UNKNOWN', '', #95, #81 ) ;
#45 = PERSON_AND_ORGANIZATION ( #147, #144 ) ;
#46 = COORDINATED_UNIVERSAL_TIME_OFFSET ( 5, 0, .BEHIND. ) ;
#47 = DATE_TIME_ROLE ( 'creation_date' ) ;
#48 = PERSON_AND_ORGANIZATION ( #147, #144 ) ;
#49 =( BOUNDED_CURVE ( )  B_SPLINE_CURVE ( 3, ( #39, #173, #23, #85 ),
 .UNSPECIFIED., .F., .T. ) 
 B_SPLINE_CURVE_WITH_KNOTS ( ( 4, 4 ),
 ( 1.570796326794896558, 4.712388980384689674 ),
 .UNSPECIFIED. ) 
 CURVE ( )  GEOMETRIC_REPRESENTATION_ITEM ( )  RATIONAL_B_SPLINE_CURVE ( ( 1.000000000000000000, 0.3333333333333333703, 0.3333333333333333703, 1.000000000000000000 ) ) 
 REPRESENTATION_ITEM ( '' )  );
#50 = PERSON_AND_ORGANIZATION ( #147, #144 ) ;
#51 = APPROVAL_DATE_TIME ( #87, #154 ) ;
#52 = VERTEX_POINT ( 'NONE', #78 ) ;
#53 = DIRECTION ( 'NONE',  ( 0.0000000000000000000, 0.0000000000000000000, 1.000000000000000000 ) ) ;
#54 = VERTEX_POINT ( 'NONE', #4 ) ;
#55 = CALENDAR_DATE ( 2021, 13, 1 ) ;
#56 = EDGE_LOOP ( 'NONE', ( #14, #29, #66, #26 ) ) ;
#57 = PERSON_AND_ORGANIZATION_ROLE ( 'design_owner' ) ;
#58 = APPROVAL_ROLE ( '' ) ;
#59 = APPROVAL_ROLE ( '' ) ;
#60 = LINE ( 'NONE', #167, #117 ) ;
#61 = EDGE_CURVE ( 'NONE', #21, #75, #92, .T. ) ;
#62 = CC_DESIGN_PERSON_AND_ORGANIZATION_ASSIGNMENT ( #45, #34, ( #44 ) ) ;
#63 = PLANE ( 'NONE',  #174 ) ;
#64 = FACE_OUTER_BOUND ( 'NONE', #56, .T. ) ;
#65 = CARTESIAN_POINT ( 'NONE',  ( 12.70000000000000995, 25.39999999999999858, -0.1108312209425420664 ) ) ;
#66 = ORIENTED_EDGE ( 'NONE', *, *, #152, .T. ) ;
#67 = DIRECTION ( 'NONE',  ( 0.0000000000000000000, 0.0000000000000000000, 1.000000000000000000 ) ) ;
#68 = AXIS2_PLACEMENT_3D ( 'NONE', #148, #67, #150 ) ;
#69 = DIRECTION ( 'NONE',  ( 1.000000000000000000, 0.0000000000000000000, 0.0000000000000000000 ) ) ;
#70 = DATE_AND_TIME ( #139, #99 ) ;
#71 = SHAPE_DEFINITION_REPRESENTATION ( #100, #137 ) ;
#72 = PERSON_AND_ORGANIZATION_ROLE ( 'design_supplier' ) ;
#73 = APPROVAL_DATE_TIME ( #115, #158 ) ;
#74 = APPROVAL_STATUS ( 'not_yet_approved' ) ;
#75 = VERTEX_POINT ( 'NONE', #146 ) ;
#76 = COORDINATED_UNIVERSAL_TIME_OFFSET ( 5, 0, .BEHIND. ) ;
#77 = APPROVAL_PERSON_ORGANIZATION ( #151, #138, #112 ) ;
#78 = CARTESIAN_POINT ( 'NONE',  ( 12.69999999999999929, 1.555301434917138433E-15, 0.1108312209425420802 ) ) ;
#79 = EDGE_LOOP ( 'NONE', ( #88, #128 ) ) ;
#80 = CALENDAR_DATE ( 2021, 13, 1 ) ;
#81 = DESIGN_CONTEXT ( 'detailed design', #20, 'design' ) ;
#82 = AXIS2_PLACEMENT_3D ( 'NONE', #155, #22, #24 ) ;
#83 = CARTESIAN_POINT ( 'NONE',  ( 0.0000000000000000000, 0.0000000000000000000, 4.000000000000000000 ) ) ;
#84 = CIRCLE ( 'NONE', #3, 12.69999999999999929 ) ;
#85 = CARTESIAN_POINT ( 'NONE',  ( 12.69999999999999929, 1.555301434917138433E-15, 0.1108312209425420802 ) ) ;
#86 = APPLICATION_PROTOCOL_DEFINITION ( 'international standard', 'config_control_design', 1994, #20 ) ;
#87 = DATE_AND_TIME ( #55, #11 ) ;
#88 = ORIENTED_EDGE ( 'NONE', *, *, #163, .T. ) ;
#89 = AXIS2_PLACEMENT_3D ( 'NONE', #83, #108, #124 ) ;
#90 = CYLINDRICAL_SURFACE ( 'NONE', #145, 12.69999999999999929 ) ;
#91 = CC_DESIGN_PERSON_AND_ORGANIZATION_ASSIGNMENT ( #25, #72, ( #95 ) ) ;
#92 = CIRCLE ( 'NONE', #12, 12.69999999999999929 ) ;
#93 = EDGE_CURVE ( 'NONE', #75, #54, #60, .T. ) ;
#94 =( NAMED_UNIT ( * ) PLANE_ANGLE_UNIT ( ) SI_UNIT ( $, .RADIAN. ) );
#95 = PRODUCT_DEFINITION_FORMATION_WITH_SPECIFIED_SOURCE ( 'ANY', '', #101, .NOT_KNOWN. ) ;
#96 = FACE_OUTER_BOUND ( 'NONE', #175, .T. ) ;
#97 = CC_DESIGN_PERSON_AND_ORGANIZATION_ASSIGNMENT ( #121, #133, ( #38 ) ) ;
#98 = ADVANCED_FACE ( 'NONE', ( #132 ), #102, .T. ) ;
#99 = LOCAL_TIME ( 11, 35, 44.00000000000000000, #6 ) ;
#100 = PRODUCT_DEFINITION_SHAPE ( 'NONE', 'NONE',  #44 ) ;
#101 = PRODUCT ( 'ISP Wedged Parts_16809', 'ISP Wedged Parts_16809', '', ( #36 ) ) ;
#102 = PLANE ( 'NONE',  #68 ) ;
#103 = PERSON_AND_ORGANIZATION ( #147, #144 ) ;
#104 = CC_DESIGN_APPROVAL ( #154, ( #95 ) ) ;
#105 = DIRECTION ( 'NONE',  ( -0.0000000000000000000, -0.0000000000000000000, -1.000000000000000000 ) ) ;
#106 = DIRECTION ( 'NONE',  ( -0.0000000000000000000, -0.0000000000000000000, -1.000000000000000000 ) ) ;
#107 =( LENGTH_UNIT ( ) NAMED_UNIT ( * ) SI_UNIT ( .MILLI., .METRE. ) );
#108 = DIRECTION ( 'NONE',  ( -0.0000000000000000000, -0.0000000000000000000, -1.000000000000000000 ) ) ;
#109 = CC_DESIGN_DATE_AND_TIME_ASSIGNMENT ( #15, #131, ( #38 ) ) ;
#110 = COORDINATED_UNIVERSAL_TIME_OFFSET ( 5, 0, .BEHIND. ) ;
#111 = MANIFOLD_SOLID_BREP ( 'Cut-Extrude1', #123 ) ;
#112 = APPROVAL_ROLE ( '' ) ;
#113 = CYLINDRICAL_SURFACE ( 'NONE', #89, 12.69999999999999929 ) ;
#114 = APPROVAL_DATE_TIME ( #17, #138 ) ;
#115 = DATE_AND_TIME ( #41, #156 ) ;
#116 = APPROVAL_PERSON_ORGANIZATION ( #48, #154, #58 ) ;
#117 = VECTOR ( 'NONE', #105, 1000.000000000000000 ) ;
#118 = CALENDAR_DATE ( 2021, 13, 1 ) ;
#119 = CARTESIAN_POINT ( 'NONE',  ( 12.69999999999999929, 1.555301434917138433E-15, 4.000000000000000000 ) ) ;
#120 = ORIENTED_EDGE ( 'NONE', *, *, #152, .F. ) ;
#121 = PERSON_AND_ORGANIZATION ( #147, #144 ) ;
#122 = CARTESIAN_POINT ( 'NONE',  ( 0.0000000000000000000, 0.0000000000000000000, 4.000000000000000000 ) ) ;
#123 = CLOSED_SHELL ( 'NONE', ( #160, #161, #98, #40 ) ) ;
#124 = DIRECTION ( 'NONE',  ( -1.000000000000000000, 0.0000000000000000000, 0.0000000000000000000 ) ) ;
#125 = APPROVAL_STATUS ( 'not_yet_approved' ) ;
#126 = APPROVAL_STATUS ( 'not_yet_approved' ) ;
#127 = DIRECTION ( 'NONE',  ( 0.0000000000000000000, 0.0000000000000000000, 1.000000000000000000 ) ) ;
#128 = ORIENTED_EDGE ( 'NONE', *, *, #61, .T. ) ;
#129 = CARTESIAN_POINT ( 'NONE',  ( -12.70000000000000462, 25.39999999999999858, -0.1108312209425421080 ) ) ;
#130 = CC_DESIGN_PERSON_AND_ORGANIZATION_ASSIGNMENT ( #162, #28, ( #95 ) ) ;
#131 = DATE_TIME_ROLE ( 'classification_date' ) ;
#132 = FACE_OUTER_BOUND ( 'NONE', #79, .T. ) ;
#133 = PERSON_AND_ORGANIZATION_ROLE ( 'classification_officer' ) ;
#134 =( BOUNDED_CURVE ( )  B_SPLINE_CURVE ( 3, ( #32, #65, #129, #153 ),
 .UNSPECIFIED., .F., .F. ) 
 B_SPLINE_CURVE_WITH_KNOTS ( ( 4, 4 ),
 ( 4.712388980384689674, 7.853981633974482790 ),
 .UNSPECIFIED. ) 
 CURVE ( )  GEOMETRIC_REPRESENTATION_ITEM ( )  RATIONAL_B_SPLINE_CURVE ( ( 1.000000000000000000, 0.3333333333333333703, 0.3333333333333333703, 1.000000000000000000 ) ) 
 REPRESENTATION_ITEM ( '' )  );
#135 = LINE ( 'NONE', #119, #1 ) ;
#136 = CC_DESIGN_PERSON_AND_ORGANIZATION_ASSIGNMENT ( #50, #57, ( #101 ) ) ;
#137 = ADVANCED_BREP_SHAPE_REPRESENTATION ( 'ISP Wedged Parts_16809', ( #111, #82 ), #5 ) ;
#138 = APPROVAL ( #74, 'UNSPECIFIED' ) ;
#139 = CALENDAR_DATE ( 2021, 13, 1 ) ;
#140 =( NAMED_UNIT ( * ) SI_UNIT ( $, .STERADIAN. ) SOLID_ANGLE_UNIT ( ) );
#141 = CC_DESIGN_APPROVAL ( #158, ( #44 ) ) ;
#142 = SECURITY_CLASSIFICATION_LEVEL ( 'unclassified' ) ;
#143 = CC_DESIGN_DATE_AND_TIME_ASSIGNMENT ( #70, #47, ( #44 ) ) ;
#144 = ORGANIZATION ( 'UNSPECIFIED', 'UNSPECIFIED', '' ) ;
#145 = AXIS2_PLACEMENT_3D ( 'NONE', #122, #106, #8 ) ;
#146 = CARTESIAN_POINT ( 'NONE',  ( -12.69999999999999929, 0.0000000000000000000, 4.000000000000000000 ) ) ;
#147 = PERSON ( 'UNSPECIFIED', 'UNSPECIFIED', 'UNSPECIFIED', ('UNSPECIFIED'), ('UNSPECIFIED'), ('UNSPECIFIED') ) ;
#148 = CARTESIAN_POINT ( 'NONE',  ( 0.0000000000000000000, 0.0000000000000000000, 4.000000000000000000 ) ) ;
#149 = EDGE_CURVE ( 'NONE', #54, #52, #49, .T. ) ;
#150 = DIRECTION ( 'NONE',  ( 1.000000000000000000, 0.0000000000000000000, -0.0000000000000000000 ) ) ;
#151 = PERSON_AND_ORGANIZATION ( #147, #144 ) ;
#152 = EDGE_CURVE ( 'NONE', #52, #54, #134, .T. ) ;
#153 = CARTESIAN_POINT ( 'NONE',  ( -12.69999999999999929, 0.0000000000000000000, 0.1108312209425420802 ) ) ;
#154 = APPROVAL ( #126, 'UNSPECIFIED' ) ;
#155 = CARTESIAN_POINT ( 'NONE',  ( 0.0000000000000000000, 0.0000000000000000000, 0.0000000000000000000 ) ) ;
#156 = LOCAL_TIME ( 11, 35, 44.00000000000000000, #76 ) ;
#157 = LOCAL_TIME ( 11, 35, 44.00000000000000000, #19 ) ;
#158 = APPROVAL ( #125, 'UNSPECIFIED' ) ;
#159 = ORIENTED_EDGE ( 'NONE', *, *, #149, .F. ) ;
#160 = ADVANCED_FACE ( 'NONE', ( #64 ), #90, .T. ) ;
#161 = ADVANCED_FACE ( 'NONE', ( #16 ), #113, .T. ) ;
#162 = PERSON_AND_ORGANIZATION ( #147, #144 ) ;
#163 = EDGE_CURVE ( 'NONE', #75, #21, #84, .T. ) ;
#164 = UNCERTAINTY_MEASURE_WITH_UNIT (LENGTH_MEASURE( 1.000000000000000082E-05 ), #107, 'distance_accuracy_value', 'NONE');
#165 = CARTESIAN_POINT ( 'NONE',  ( 12.69999999999999929, 1.555301434917138433E-15, 4.000000000000000000 ) ) ;
#166 = EDGE_LOOP ( 'NONE', ( #10, #33, #169, #13 ) ) ;
#167 = CARTESIAN_POINT ( 'NONE',  ( -12.69999999999999929, 0.0000000000000000000, 4.000000000000000000 ) ) ;
#168 = LOCAL_TIME ( 11, 35, 44.00000000000000000, #46 ) ;
#169 = ORIENTED_EDGE ( 'NONE', *, *, #93, .T. ) ;
#170 = CARTESIAN_POINT ( 'NONE',  ( 0.0000000000000000000, 0.0000000000000000000, 4.000000000000000000 ) ) ;
#171 = CC_DESIGN_APPROVAL ( #138, ( #38 ) ) ;
#172 = DIRECTION ( 'NONE',  ( 1.000000000000000000, 0.0000000000000000000, 0.0000000000000000000 ) ) ;
#173 = CARTESIAN_POINT ( 'NONE',  ( -12.70000000000000462, -25.39999999999999858, 0.3324936628276262129 ) ) ;
#174 = AXIS2_PLACEMENT_3D ( 'NONE', #2, #30, #42 ) ;
#175 = EDGE_LOOP ( 'NONE', ( #159, #120 ) ) ;
ENDSEC;
END-ISO-10303-21;
