ISO-10303-21;
HEADER;
FILE_DESCRIPTION (( 'STEP AP203' ),
    '1' );
FILE_NAME ('TTN047633-E0W.STEP',
    '2019-05-30T15:03:04',
    ( '' ),
    ( '' ),
    'SwSTEP 2.0',
    'SolidWorks 2018',
    '' );
FILE_SCHEMA (( 'CONFIG_CONTROL_DESIGN' ));
ENDSEC;

DATA;
#1 = DIRECTION ( 'NONE',  ( 0.0000000000000000000, -3.061515884555942652E-16, 1.000000000000000000 ) ) ;
#2 = PERSON_AND_ORGANIZATION_ROLE ( 'creator' ) ;
#3 = PERSON_AND_ORGANIZATION ( #128, #78 ) ;
#4 = DIRECTION ( 'NONE',  ( 0.0000000000000000000, 1.000000000000000000, 3.073328992872296367E-16 ) ) ;
#5 = ADVANCED_FACE ( 'NONE', ( #135 ), #121, .T. ) ;
#6 = PLANE ( 'NONE',  #24 ) ;
#7 = ADVANCED_FACE ( 'NONE', ( #192 ), #119, .T. ) ;
#8 = DIRECTION ( 'NONE',  ( 0.0000000000000000000, 0.0000000000000000000, 1.000000000000000000 ) ) ;
#9 = APPLICATION_CONTEXT ( 'configuration controlled 3d designs of mechanical parts and assemblies' ) ;
#10 = VECTOR ( 'NONE', #179, 1000.000000000000000 ) ;
#11 = AXIS2_PLACEMENT_3D ( 'NONE', #263, #136, #240 ) ;
#12 = VERTEX_POINT ( 'NONE', #233 ) ;
#13 = EDGE_CURVE ( 'NONE', #139, #290, #64, .T. ) ;
#14 = VECTOR ( 'NONE', #253, 1000.000000000000000 ) ;
#15 = CIRCLE ( 'NONE', #58, 12.69999999999999929 ) ;
#16 = CARTESIAN_POINT ( 'NONE',  ( 0.0000000000000000000, 0.0000000000000000000, 0.0000000000000000000 ) ) ;
#17 = EDGE_CURVE ( 'NONE', #12, #55, #76, .T. ) ;
#18 = ORIENTED_EDGE ( 'NONE', *, *, #293, .T. ) ;
#19 = ORIENTED_EDGE ( 'NONE', *, *, #126, .F. ) ;
#20 = EDGE_CURVE ( 'NONE', #139, #163, #101, .T. ) ;
#21 = LOCAL_TIME ( 11, 3, 4.000000000000000000, #169 ) ;
#22 = LINE ( 'NONE', #67, #60 ) ;
#23 = ORIENTED_EDGE ( 'NONE', *, *, #13, .F. ) ;
#24 = AXIS2_PLACEMENT_3D ( 'NONE', #182, #50, #49 ) ;
#25 = PERSON_AND_ORGANIZATION_ROLE ( 'creator' ) ;
#26 = DIRECTION ( 'NONE',  ( 0.0000000000000000000, 1.000000000000000000, 3.073328992872296367E-16 ) ) ;
#27 = PRODUCT_DEFINITION_SHAPE ( 'NONE', 'NONE',  #174 ) ;
#28 = EDGE_LOOP ( 'NONE', ( #87, #59, #220 ) ) ;
#29 = DIRECTION ( 'NONE',  ( 1.000000000000000000, 0.0000000000000000000, -0.0000000000000000000 ) ) ;
#30 = ADVANCED_FACE ( 'NONE', ( #200 ), #298, .T. ) ;
#31 = AXIS2_PLACEMENT_3D ( 'NONE', #301, #205, #155 ) ;
#32 = APPROVAL_PERSON_ORGANIZATION ( #62, #236, #154 ) ;
#33 = CIRCLE ( 'NONE', #120, 12.69999999999999929 ) ;
#34 = AXIS2_PLACEMENT_3D ( 'NONE', #214, #85, #161 ) ;
#35 = APPROVAL_DATE_TIME ( #176, #236 ) ;
#36 = LINE ( 'NONE', #160, #10 ) ;
#37 = CC_DESIGN_PERSON_AND_ORGANIZATION_ASSIGNMENT ( #159, #141, ( #183 ) ) ;
#38 = PERSON_AND_ORGANIZATION ( #128, #78 ) ;
#39 = EDGE_CURVE ( 'NONE', #12, #248, #130, .T. ) ;
#40 = ORIENTED_EDGE ( 'NONE', *, *, #211, .F. ) ;
#41 = AXIS2_PLACEMENT_3D ( 'NONE', #282, #90, #215 ) ;
#42 = CONICAL_SURFACE ( 'NONE', #44, 12.50000000000000711, 0.7853981633974480570 ) ;
#43 = DIRECTION ( 'NONE',  ( 0.0000000000000000000, 1.000000000000000000, 3.122502256758250798E-16 ) ) ;
#44 = AXIS2_PLACEMENT_3D ( 'NONE', #175, #1, #206 ) ;
#45 = CARTESIAN_POINT ( 'NONE',  ( 1.555301434917138433E-15, -12.69999999999999929, -1.184700517951648102 ) ) ;
#46 = PERSON_AND_ORGANIZATION ( #128, #78 ) ;
#47 = ORIENTED_EDGE ( 'NONE', *, *, #272, .T. ) ;
#48 = ORIENTED_EDGE ( 'NONE', *, *, #196, .F. ) ;
#49 = DIRECTION ( 'NONE',  ( 0.0000000000000000000, 1.000000000000000000, 3.061515884555943146E-16 ) ) ;
#50 = DIRECTION ( 'NONE',  ( -0.0000000000000000000, 3.061515884555943146E-16, -1.000000000000000000 ) ) ;
#51 = ORIENTED_EDGE ( 'NONE', *, *, #126, .T. ) ;
#52 = ADVANCED_FACE ( 'NONE', ( #177 ), #42, .T. ) ;
#53 = CARTESIAN_POINT ( 'NONE',  ( 0.0000000000000000000, 12.50127230455358784, 1.360724710201237420 ) ) ;
#54 = DATE_AND_TIME ( #114, #21 ) ;
#55 = VERTEX_POINT ( 'NONE', #117 ) ;
#56 = ORIENTED_EDGE ( 'NONE', *, *, #74, .F. ) ;
#57 = VERTEX_POINT ( 'NONE', #262 ) ;
#58 = AXIS2_PLACEMENT_3D ( 'NONE', #181, #286, #281 ) ;
#59 = ORIENTED_EDGE ( 'NONE', *, *, #17, .T. ) ;
#60 = VECTOR ( 'NONE', #118, 1000.000000000000000 ) ;
#61 = DIRECTION ( 'NONE',  ( 0.0000000000000000000, 1.000000000000000000, 3.073328992872296367E-16 ) ) ;
#62 = PERSON_AND_ORGANIZATION ( #128, #78 ) ;
#63 = CIRCLE ( 'NONE', #107, 12.50127230455354344 ) ;
#64 = CIRCLE ( 'NONE', #152, 12.50000000000000711 ) ;
#65 = AXIS2_PLACEMENT_3D ( 'NONE', #68, #69, #4 ) ;
#66 = EDGE_LOOP ( 'NONE', ( #111, #279, #242, #197 ) ) ;
#67 = CARTESIAN_POINT ( 'NONE',  ( 1.555301434917138433E-15, -12.69999999999999929, -1.384700517951638066 ) ) ;
#68 = CARTESIAN_POINT ( 'NONE',  ( 0.0000000000000000000, 1.836909530733565148E-16, -1.384700517951634291 ) ) ;
#69 = DIRECTION ( 'NONE',  ( -0.0000000000000000000, 3.061515884555943146E-16, -1.000000000000000000 ) ) ;
#70 = CALENDAR_DATE ( 2019, 30, 5 ) ;
#71 = ORIENTED_EDGE ( 'NONE', *, *, #77, .T. ) ;
#72 = DIRECTION ( 'NONE',  ( 0.0000000000000000000, -1.000000000000000000, -3.122184467197083493E-16 ) ) ;
#73 = MANIFOLD_SOLID_BREP ( 'TTN047634-1-solid1', #178 ) ;
#74 = EDGE_CURVE ( 'NONE', #57, #84, #15, .T. ) ;
#75 = UNCERTAINTY_MEASURE_WITH_UNIT (LENGTH_MEASURE( 1.000000000000000082E-05 ), #165, 'distance_accuracy_value', 'NONE');
#76 = CIRCLE ( 'NONE', #188, 105.2000000000000171 ) ;
#77 = EDGE_CURVE ( 'NONE', #57, #123, #22, .T. ) ;
#78 = ORGANIZATION ( 'UNSPECIFIED', 'UNSPECIFIED', '' ) ;
#79 = CONICAL_SURFACE ( 'NONE', #34, 12.69999999999999929, 0.8459069665502284563 ) ;
#80 = ORIENTED_EDGE ( 'NONE', *, *, #293, .F. ) ;
#81 = DIRECTION ( 'NONE',  ( 8.659560562354930393E-17, 0.7071067811865471286, 0.7071067811865479058 ) ) ;
#82 = APPROVAL_STATUS ( 'not_yet_approved' ) ;
#83 = CIRCLE ( 'NONE', #116, 105.2000000000000171 ) ;
#84 = VERTEX_POINT ( 'NONE', #137 ) ;
#85 = DIRECTION ( 'NONE',  ( -0.0000000000000000000, 3.061515884556004775E-16, -1.000000000000000000 ) ) ;
#86 = ADVANCED_FACE ( 'NONE', ( #256 ), #247, .F. ) ;
#87 = ORIENTED_EDGE ( 'NONE', *, *, #196, .T. ) ;
#88 = AXIS2_PLACEMENT_3D ( 'NONE', #16, #100, #219 ) ;
#89 = CARTESIAN_POINT ( 'NONE',  ( 0.0000000000000000000, -1.312778011297588515E-14, 105.8152994820483741 ) ) ;
#90 = DIRECTION ( 'NONE',  ( 1.000000000000000000, 0.0000000000000000000, -0.0000000000000000000 ) ) ;
#91 = ADVANCED_FACE ( 'NONE', ( #295 ), #227, .T. ) ;
#92 = LOCAL_TIME ( 11, 3, 4.000000000000000000, #132 ) ;
#93 = ADVANCED_FACE ( 'NONE', ( #238 ), #252, .F. ) ;
#94 = CIRCLE ( 'NONE', #254, 12.69999999999999929 ) ;
#95 = ORIENTED_EDGE ( 'NONE', *, *, #13, .T. ) ;
#96 = APPROVAL_ROLE ( '' ) ;
#97 = CARTESIAN_POINT ( 'NONE',  ( 0.0000000000000000000, 1.224606353822407087E-16, -1.184700517951644105 ) ) ;
#98 = CALENDAR_DATE ( 2019, 30, 5 ) ;
#99 = CIRCLE ( 'NONE', #235, 12.69999999999999929 ) ;
#100 = DIRECTION ( 'NONE',  ( 0.0000000000000000000, 0.0000000000000000000, 1.000000000000000000 ) ) ;
#101 = LINE ( 'NONE', #129, #191 ) ;
#102 = PRODUCT ( 'TTN047633-E0W', 'TTN047633-E0W', '', ( #140 ) ) ;
#103 = FACE_OUTER_BOUND ( 'NONE', #255, .T. ) ;
#104 = ORIENTED_EDGE ( 'NONE', *, *, #20, .F. ) ;
#105 =( NAMED_UNIT ( * ) SI_UNIT ( $, .STERADIAN. ) SOLID_ANGLE_UNIT ( ) );
#106 = ORIENTED_EDGE ( 'NONE', *, *, #20, .T. ) ;
#107 = AXIS2_PLACEMENT_3D ( 'NONE', #195, #289, #189 ) ;
#108 = AXIS2_PLACEMENT_3D ( 'NONE', #258, #275, #61 ) ;
#109 = DATE_AND_TIME ( #98, #259 ) ;
#110 = CARTESIAN_POINT ( 'NONE',  ( 0.0000000000000000000, -1.312778011297588515E-14, 105.8152994820483741 ) ) ;
#111 = ORIENTED_EDGE ( 'NONE', *, *, #77, .F. ) ;
#112 = CARTESIAN_POINT ( 'NONE',  ( 0.0000000000000000000, 1.836909530733565148E-16, -1.384700517951634291 ) ) ;
#113 = DIRECTION ( 'NONE',  ( 0.0000000000000000000, -3.061515884556004775E-16, 1.000000000000000000 ) ) ;
#114 = CALENDAR_DATE ( 2019, 30, 5 ) ;
#115 = VECTOR ( 'NONE', #265, 1000.000000000000000 ) ;
#116 = AXIS2_PLACEMENT_3D ( 'NONE', #208, #243, #8 ) ;
#117 = CARTESIAN_POINT ( 'NONE',  ( 0.0000000000000000000, 2.552100915606772036E-14, 0.6152994820483592697 ) ) ;
#118 = DIRECTION ( 'NONE',  ( -0.0000000000000000000, 3.061515884555943146E-16, -1.000000000000000000 ) ) ;
#119 = CONICAL_SURFACE ( 'NONE', #31, 12.50000000000000711, 0.7853981633974480570 ) ;
#120 = AXIS2_PLACEMENT_3D ( 'NONE', #125, #271, #167 ) ;
#121 = CONICAL_SURFACE ( 'NONE', #108, 12.69999999999999929, 0.8459069665502284563 ) ;
#122 = CARTESIAN_POINT ( 'NONE',  ( 0.0000000000000000000, -12.50000000000000711, -1.384700517951640064 ) ) ;
#123 = VERTEX_POINT ( 'NONE', #45 ) ;
#124 = APPROVAL_STATUS ( 'not_yet_approved' ) ;
#125 = CARTESIAN_POINT ( 'NONE',  ( 0.0000000000000000000, -6.029352554478859928E-16, 1.184700517951658094 ) ) ;
#126 = EDGE_CURVE ( 'NONE', #290, #139, #133, .T. ) ;
#127 = CC_DESIGN_PERSON_AND_ORGANIZATION_ASSIGNMENT ( #294, #2, ( #174 ) ) ;
#128 = PERSON ( 'UNSPECIFIED', 'UNSPECIFIED', 'UNSPECIFIED', ('UNSPECIFIED'), ('UNSPECIFIED'), ('UNSPECIFIED') ) ;
#129 = CARTESIAN_POINT ( 'NONE',  ( 1.530808498934192310E-15, 12.50000000000000711, -1.384700517951632293 ) ) ;
#130 = CIRCLE ( 'NONE', #225, 12.50127230455354344 ) ;
#131 =( GEOMETRIC_REPRESENTATION_CONTEXT ( 3 ) GLOBAL_UNCERTAINTY_ASSIGNED_CONTEXT ( ( #75 ) ) GLOBAL_UNIT_ASSIGNED_CONTEXT ( ( #165, #270, #105 ) ) REPRESENTATION_CONTEXT ( 'NONE', 'WORKASPACE' ) );
#132 = COORDINATED_UNIVERSAL_TIME_OFFSET ( 5, 0, .BEHIND. ) ;
#133 = CIRCLE ( 'NONE', #11, 12.50000000000000711 ) ;
#134 = EDGE_CURVE ( 'NONE', #84, #163, #36, .T. ) ;
#135 = FACE_OUTER_BOUND ( 'NONE', #172, .T. ) ;
#136 = DIRECTION ( 'NONE',  ( -0.0000000000000000000, 3.061515884555943146E-16, -1.000000000000000000 ) ) ;
#137 = CARTESIAN_POINT ( 'NONE',  ( 0.0000000000000000000, 12.69999999999999929, 1.184700517951661869 ) ) ;
#138 = SHAPE_DEFINITION_REPRESENTATION ( #27, #266 ) ;
#139 = VERTEX_POINT ( 'NONE', #245 ) ;
#140 = MECHANICAL_CONTEXT ( 'NONE', #212, 'mechanical' ) ;
#141 = PERSON_AND_ORGANIZATION_ROLE ( 'design_supplier' ) ;
#142 = CC_DESIGN_DATE_AND_TIME_ASSIGNMENT ( #54, #292, ( #222 ) ) ;
#143 = CARTESIAN_POINT ( 'NONE',  ( 0.0000000000000000000, -12.50000000000000711, -1.384700517951640064 ) ) ;
#144 = EDGE_CURVE ( 'NONE', #123, #163, #94, .T. ) ;
#145 = CC_DESIGN_PERSON_AND_ORGANIZATION_ASSIGNMENT ( #3, #194, ( #102 ) ) ;
#146 = PERSON_AND_ORGANIZATION ( #128, #78 ) ;
#147 = EDGE_CURVE ( 'NONE', #248, #55, #83, .T. ) ;
#148 = PERSON_AND_ORGANIZATION ( #128, #78 ) ;
#149 = LINE ( 'NONE', #218, #14 ) ;
#150 = ORIENTED_EDGE ( 'NONE', *, *, #204, .F. ) ;
#151 = DIRECTION ( 'NONE',  ( 0.0000000000000000000, 1.000000000000000000, 3.073328992872296367E-16 ) ) ;
#152 = AXIS2_PLACEMENT_3D ( 'NONE', #276, #237, #43 ) ;
#153 = LOCAL_TIME ( 11, 3, 4.000000000000000000, #234 ) ;
#154 = APPROVAL_ROLE ( '' ) ;
#155 = DIRECTION ( 'NONE',  ( 0.0000000000000000000, -1.000000000000000000, -3.122502256758250798E-16 ) ) ;
#156 = ORIENTED_EDGE ( 'NONE', *, *, #272, .F. ) ;
#157 = DIRECTION ( 'NONE',  ( 0.0000000000000000000, 1.000000000000000000, 2.638362701105409535E-16 ) ) ;
#158 = APPROVAL ( #124, 'UNSPECIFIED' ) ;
#159 = PERSON_AND_ORGANIZATION ( #128, #78 ) ;
#160 = CARTESIAN_POINT ( 'NONE',  ( 0.0000000000000000000, 12.69999999999999929, -1.384700517951630294 ) ) ;
#161 = DIRECTION ( 'NONE',  ( 0.0000000000000000000, 1.000000000000000000, 3.073328992872296367E-16 ) ) ;
#162 = ADVANCED_FACE ( 'NONE', ( #103 ), #79, .T. ) ;
#163 = VERTEX_POINT ( 'NONE', #210 ) ;
#164 = APPLICATION_PROTOCOL_DEFINITION ( 'international standard', 'config_control_design', 1994, #212 ) ;
#165 =( LENGTH_UNIT ( ) NAMED_UNIT ( * ) SI_UNIT ( .MILLI., .METRE. ) );
#166 = CC_DESIGN_APPROVAL ( #198, ( #174 ) ) ;
#167 = DIRECTION ( 'NONE',  ( 0.0000000000000000000, -1.000000000000000000, -3.073328992872296367E-16 ) ) ;
#168 = ORIENTED_EDGE ( 'NONE', *, *, #274, .F. ) ;
#169 = COORDINATED_UNIVERSAL_TIME_OFFSET ( 5, 0, .BEHIND. ) ;
#170 = LINE ( 'NONE', #186, #115 ) ;
#171 = CC_DESIGN_APPROVAL ( #158, ( #222 ) ) ;
#172 = EDGE_LOOP ( 'NONE', ( #156, #48, #239, #56 ) ) ;
#173 = ADVANCED_FACE ( 'NONE', ( #273 ), #6, .T. ) ;
#174 = PRODUCT_DEFINITION ( 'UNKNOWN', '', #183, #230 ) ;
#175 = CARTESIAN_POINT ( 'NONE',  ( 0.0000000000000000000, 1.836909530733571311E-16, -1.384700517951636289 ) ) ;
#176 = DATE_AND_TIME ( #291, #92 ) ;
#177 = FACE_OUTER_BOUND ( 'NONE', #280, .T. ) ;
#178 = CLOSED_SHELL ( 'NONE', ( #162, #7, #93, #30, #173, #91, #86, #52, #5 ) ) ;
#179 = DIRECTION ( 'NONE',  ( -0.0000000000000000000, 3.061515884555943146E-16, -1.000000000000000000 ) ) ;
#180 = APPROVAL_ROLE ( '' ) ;
#181 = CARTESIAN_POINT ( 'NONE',  ( 0.0000000000000000000, -6.029352554478859928E-16, 1.184700517951658094 ) ) ;
#182 = CARTESIAN_POINT ( 'NONE',  ( 0.0000000000000000000, 1.836909530733571311E-16, -1.384700517951636289 ) ) ;
#183 = PRODUCT_DEFINITION_FORMATION_WITH_SPECIFIED_SOURCE ( 'ANY', '', #102, .NOT_KNOWN. ) ;
#184 = DATE_AND_TIME ( #70, #232 ) ;
#185 = VECTOR ( 'NONE', #228, 1000.000000000000000 ) ;
#186 = CARTESIAN_POINT ( 'NONE',  ( 0.0000000000000000000, 12.69999999999999929, 1.184700517951661869 ) ) ;
#187 = CARTESIAN_POINT ( 'NONE',  ( 0.0000000000000000000, 1.224606353822407087E-16, -1.184700517951644105 ) ) ;
#188 = AXIS2_PLACEMENT_3D ( 'NONE', #110, #203, #257 ) ;
#189 = DIRECTION ( 'NONE',  ( 0.0000000000000000000, -1.000000000000000000, -3.122184467197083493E-16 ) ) ;
#190 = LINE ( 'NONE', #122, #185 ) ;
#191 = VECTOR ( 'NONE', #81, 1000.000000000000114 ) ;
#192 = FACE_OUTER_BOUND ( 'NONE', #221, .T. ) ;
#193 = CC_DESIGN_SECURITY_CLASSIFICATION ( #222, ( #183 ) ) ;
#194 = PERSON_AND_ORGANIZATION_ROLE ( 'design_owner' ) ;
#195 = CARTESIAN_POINT ( 'NONE',  ( 0.0000000000000000000, 1.885115387487940639E-14, 1.360724710201232313 ) ) ;
#196 = EDGE_CURVE ( 'NONE', #248, #12, #63, .T. ) ;
#197 = ORIENTED_EDGE ( 'NONE', *, *, #211, .T. ) ;
#198 = APPROVAL ( #82, 'UNSPECIFIED' ) ;
#199 = APPROVAL_PERSON_ORGANIZATION ( #46, #198, #180 ) ;
#200 = FACE_OUTER_BOUND ( 'NONE', #231, .T. ) ;
#201 = ORIENTED_EDGE ( 'NONE', *, *, #134, .F. ) ;
#202 = CC_DESIGN_PERSON_AND_ORGANIZATION_ASSIGNMENT ( #146, #25, ( #183 ) ) ;
#203 = DIRECTION ( 'NONE',  ( 1.000000000000000000, 1.224646799147353207E-16, 3.749275628560213616E-32 ) ) ;
#204 = EDGE_CURVE ( 'NONE', #248, #84, #170, .T. ) ;
#205 = DIRECTION ( 'NONE',  ( 0.0000000000000000000, -3.061515884555942652E-16, 1.000000000000000000 ) ) ;
#206 = DIRECTION ( 'NONE',  ( 0.0000000000000000000, -1.000000000000000000, -3.122502256758250798E-16 ) ) ;
#207 = DATE_TIME_ROLE ( 'creation_date' ) ;
#208 = CARTESIAN_POINT ( 'NONE',  ( 0.0000000000000000000, -1.312778011297588515E-14, 105.8152994820483741 ) ) ;
#209 = PRODUCT_RELATED_PRODUCT_CATEGORY ( 'detail', '', ( #102 ) ) ;
#210 = CARTESIAN_POINT ( 'NONE',  ( 0.0000000000000000000, 12.69999999999999929, -1.184700517951640331 ) ) ;
#211 = EDGE_CURVE ( 'NONE', #163, #123, #99, .T. ) ;
#212 = APPLICATION_CONTEXT ( 'configuration controlled 3d designs of mechanical parts and assemblies' ) ;
#213 = EDGE_LOOP ( 'NONE', ( #278, #260, #300 ) ) ;
#214 = CARTESIAN_POINT ( 'NONE',  ( 0.0000000000000000000, -6.029352554478859928E-16, 1.184700517951658094 ) ) ;
#215 = DIRECTION ( 'NONE',  ( 0.0000000000000000000, 1.000000000000000000, 2.638362701105409535E-16 ) ) ;
#216 = CC_DESIGN_DATE_AND_TIME_ASSIGNMENT ( #217, #207, ( #174 ) ) ;
#217 = DATE_AND_TIME ( #226, #153 ) ;
#218 = CARTESIAN_POINT ( 'NONE',  ( 1.555301434917138433E-15, -12.69999999999999929, 1.184700517951654097 ) ) ;
#219 = DIRECTION ( 'NONE',  ( 1.000000000000000000, 0.0000000000000000000, 0.0000000000000000000 ) ) ;
#220 = ORIENTED_EDGE ( 'NONE', *, *, #147, .F. ) ;
#221 = EDGE_LOOP ( 'NONE', ( #23, #106, #241, #168 ) ) ;
#222 = SECURITY_CLASSIFICATION ( '', '', #251 ) ;
#223 = APPLICATION_PROTOCOL_DEFINITION ( 'international standard', 'config_control_design', 1994, #9 ) ;
#224 = DIRECTION ( 'NONE',  ( 0.0000000000000000000, 1.000000000000000000, 3.073328992872296367E-16 ) ) ;
#225 = AXIS2_PLACEMENT_3D ( 'NONE', #285, #113, #72 ) ;
#226 = CALENDAR_DATE ( 2019, 30, 5 ) ;
#227 = CYLINDRICAL_SURFACE ( 'NONE', #65, 12.69999999999999929 ) ;
#228 = DIRECTION ( 'NONE',  ( 0.0000000000000000000, -0.7071067811865475727, 0.7071067811865474617 ) ) ;
#229 = DIRECTION ( 'NONE',  ( 0.0000000000000000000, -3.061515884555942652E-16, 1.000000000000000000 ) ) ;
#230 = DESIGN_CONTEXT ( 'detailed design', #9, 'design' ) ;
#231 = EDGE_LOOP ( 'NONE', ( #18, #71, #267, #201 ) ) ;
#232 = LOCAL_TIME ( 11, 3, 4.000000000000000000, #283 ) ;
#233 = CARTESIAN_POINT ( 'NONE',  ( 1.530964311304098449E-15, -12.50127230455355054, 1.360724710201233645 ) ) ;
#234 = COORDINATED_UNIVERSAL_TIME_OFFSET ( 5, 0, .BEHIND. ) ;
#235 = AXIS2_PLACEMENT_3D ( 'NONE', #97, #229, #224 ) ;
#236 = APPROVAL ( #261, 'UNSPECIFIED' ) ;
#237 = DIRECTION ( 'NONE',  ( -0.0000000000000000000, 3.061515884555943146E-16, -1.000000000000000000 ) ) ;
#238 = FACE_OUTER_BOUND ( 'NONE', #28, .T. ) ;
#239 = ORIENTED_EDGE ( 'NONE', *, *, #204, .T. ) ;
#240 = DIRECTION ( 'NONE',  ( 0.0000000000000000000, 1.000000000000000000, 3.122502256758250798E-16 ) ) ;
#241 = ORIENTED_EDGE ( 'NONE', *, *, #144, .F. ) ;
#242 = ORIENTED_EDGE ( 'NONE', *, *, #134, .T. ) ;
#243 = DIRECTION ( 'NONE',  ( -1.000000000000000000, 0.0000000000000000000, 0.0000000000000000000 ) ) ;
#244 = CC_DESIGN_PERSON_AND_ORGANIZATION_ASSIGNMENT ( #38, #269, ( #222 ) ) ;
#245 = CARTESIAN_POINT ( 'NONE',  ( 1.543054966925665470E-15, 12.50000000000000711, -1.384700517951632293 ) ) ;
#246 = COORDINATED_UNIVERSAL_TIME_OFFSET ( 5, 0, .BEHIND. ) ;
#247 = SPHERICAL_SURFACE ( 'NONE', #41, 105.2000000000000171 ) ;
#248 = VERTEX_POINT ( 'NONE', #53 ) ;
#249 = ORIENTED_EDGE ( 'NONE', *, *, #274, .T. ) ;
#250 = APPROVAL_DATE_TIME ( #109, #198 ) ;
#251 = SECURITY_CLASSIFICATION_LEVEL ( 'unclassified' ) ;
#252 = SPHERICAL_SURFACE ( 'NONE', #296, 105.2000000000000171 ) ;
#253 = DIRECTION ( 'NONE',  ( 9.167372669502011554E-17, -0.7485727865278944959, -0.6630526248118344679 ) ) ;
#254 = AXIS2_PLACEMENT_3D ( 'NONE', #187, #264, #26 ) ;
#255 = EDGE_LOOP ( 'NONE', ( #299, #47, #80, #150 ) ) ;
#256 = FACE_OUTER_BOUND ( 'NONE', #213, .T. ) ;
#257 = DIRECTION ( 'NONE',  ( -1.224646799147353207E-16, 1.000000000000000000, 0.0000000000000000000 ) ) ;
#258 = CARTESIAN_POINT ( 'NONE',  ( 0.0000000000000000000, -6.029352554478859928E-16, 1.184700517951658094 ) ) ;
#259 = LOCAL_TIME ( 11, 3, 4.000000000000000000, #246 ) ;
#260 = ORIENTED_EDGE ( 'NONE', *, *, #39, .T. ) ;
#261 = APPROVAL_STATUS ( 'not_yet_approved' ) ;
#262 = CARTESIAN_POINT ( 'NONE',  ( 1.555301434917138433E-15, -12.69999999999999929, 1.184700517951654097 ) ) ;
#263 = CARTESIAN_POINT ( 'NONE',  ( 0.0000000000000000000, 1.836909530733571064E-16, -1.384700517951636289 ) ) ;
#264 = DIRECTION ( 'NONE',  ( 0.0000000000000000000, -3.061515884555942652E-16, 1.000000000000000000 ) ) ;
#265 = DIRECTION ( 'NONE',  ( 0.0000000000000000000, 0.7485727865278949400, -0.6630526248118340238 ) ) ;
#266 = ADVANCED_BREP_SHAPE_REPRESENTATION ( 'TTN047633-E0W', ( #73, #88 ), #131 ) ;
#267 = ORIENTED_EDGE ( 'NONE', *, *, #144, .T. ) ;
#268 = CC_DESIGN_APPROVAL ( #236, ( #183 ) ) ;
#269 = PERSON_AND_ORGANIZATION_ROLE ( 'classification_officer' ) ;
#270 =( NAMED_UNIT ( * ) PLANE_ANGLE_UNIT ( ) SI_UNIT ( $, .RADIAN. ) );
#271 = DIRECTION ( 'NONE',  ( -0.0000000000000000000, 3.061515884556004775E-16, -1.000000000000000000 ) ) ;
#272 = EDGE_CURVE ( 'NONE', #12, #57, #149, .T. ) ;
#273 = FACE_OUTER_BOUND ( 'NONE', #284, .T. ) ;
#274 = EDGE_CURVE ( 'NONE', #290, #123, #190, .T. ) ;
#275 = DIRECTION ( 'NONE',  ( -0.0000000000000000000, 3.061515884556004775E-16, -1.000000000000000000 ) ) ;
#276 = CARTESIAN_POINT ( 'NONE',  ( 0.0000000000000000000, 1.836909530733571064E-16, -1.384700517951636289 ) ) ;
#277 = DIRECTION ( 'NONE',  ( -0.0000000000000000000, 3.061515884555943146E-16, -1.000000000000000000 ) ) ;
#278 = ORIENTED_EDGE ( 'NONE', *, *, #17, .F. ) ;
#279 = ORIENTED_EDGE ( 'NONE', *, *, #74, .T. ) ;
#280 = EDGE_LOOP ( 'NONE', ( #104, #19, #249, #40 ) ) ;
#281 = DIRECTION ( 'NONE',  ( 0.0000000000000000000, -1.000000000000000000, -3.073328992872296367E-16 ) ) ;
#282 = CARTESIAN_POINT ( 'NONE',  ( 0.0000000000000000000, -1.312778011297588515E-14, 105.8152994820483741 ) ) ;
#283 = COORDINATED_UNIVERSAL_TIME_OFFSET ( 5, 0, .BEHIND. ) ;
#284 = EDGE_LOOP ( 'NONE', ( #51, #95 ) ) ;
#285 = CARTESIAN_POINT ( 'NONE',  ( 0.0000000000000000000, 1.885115387487940639E-14, 1.360724710201232313 ) ) ;
#286 = DIRECTION ( 'NONE',  ( -0.0000000000000000000, 3.061515884556004775E-16, -1.000000000000000000 ) ) ;
#287 = APPROVAL_DATE_TIME ( #184, #158 ) ;
#288 = AXIS2_PLACEMENT_3D ( 'NONE', #112, #277, #151 ) ;
#289 = DIRECTION ( 'NONE',  ( 0.0000000000000000000, -3.061515884556004775E-16, 1.000000000000000000 ) ) ;
#290 = VERTEX_POINT ( 'NONE', #143 ) ;
#291 = CALENDAR_DATE ( 2019, 30, 5 ) ;
#292 = DATE_TIME_ROLE ( 'classification_date' ) ;
#293 = EDGE_CURVE ( 'NONE', #84, #57, #33, .T. ) ;
#294 = PERSON_AND_ORGANIZATION ( #128, #78 ) ;
#295 = FACE_OUTER_BOUND ( 'NONE', #66, .T. ) ;
#296 = AXIS2_PLACEMENT_3D ( 'NONE', #89, #29, #157 ) ;
#297 = APPROVAL_PERSON_ORGANIZATION ( #148, #158, #96 ) ;
#298 = CYLINDRICAL_SURFACE ( 'NONE', #288, 12.69999999999999929 ) ;
#299 = ORIENTED_EDGE ( 'NONE', *, *, #39, .F. ) ;
#300 = ORIENTED_EDGE ( 'NONE', *, *, #147, .T. ) ;
#301 = CARTESIAN_POINT ( 'NONE',  ( 0.0000000000000000000, 1.836909530733571311E-16, -1.384700517951636289 ) ) ;
ENDSEC;
END-ISO-10303-21;
