ISO-10303-21;
HEADER;
FILE_DESCRIPTION (( 'STEP AP203' ),
    '1' );
FILE_NAME ('Web Model 89570.STEP',
    '2017-02-01T16:31:44',
    ( '' ),
    ( '' ),
    'SwSTEP 2.0',
    'SolidWorks 2016',
    '' );
FILE_SCHEMA (( 'CONFIG_CONTROL_DESIGN' ));
ENDSEC;

DATA;
#1 = DIRECTION ( 'NONE',  ( 0.0000000000000000000, 0.0000000000000000000, 1.000000000000000000 ) ) ;
#2 = PERSON_AND_ORGANIZATION ( #115, #112 ) ;
#3 = CARTESIAN_POINT ( 'NONE',  ( 3.000000000000000000, 3.061616997868383000E-015, -25.00000000000000000 ) ) ;
#4 = DIRECTION ( 'NONE',  ( 1.000000000000000000, 0.0000000000000000000, 0.0000000000000000000 ) ) ;
#5 = CARTESIAN_POINT ( 'NONE',  ( 3.000000000000000000, 0.0000000000000000000, 0.0000000000000000000 ) ) ;
#6 =( NAMED_UNIT ( * ) SI_UNIT ( $, .STERADIAN. ) SOLID_ANGLE_UNIT ( ) );
#7 = PERSON_AND_ORGANIZATION ( #115, #112 ) ;
#8 = APPLICATION_CONTEXT ( 'configuration controlled 3d designs of mechanical parts and assemblies' ) ;
#9 = SECURITY_CLASSIFICATION_LEVEL ( 'unclassified' ) ;
#10 = APPROVAL_DATE_TIME ( #114, #118 ) ;
#11 = MANIFOLD_SOLID_BREP ( 'Extrude1', #93 ) ;
#12 = ORIENTED_EDGE ( 'NONE', *, *, #107, .F. ) ;
#13 = FACE_OUTER_BOUND ( 'NONE', #116, .T. ) ;
#14 = APPROVAL ( #173, 'UNSPECIFIED' ) ;
#15 = DIRECTION ( 'NONE',  ( 1.000000000000000000, 0.0000000000000000000, 0.0000000000000000000 ) ) ;
#16 = DIRECTION ( 'NONE',  ( 0.0000000000000000000, 0.0000000000000000000, -1.000000000000000000 ) ) ;
#17 = EDGE_LOOP ( 'NONE', ( #37, #56 ) ) ;
#18 = VECTOR ( 'NONE', #63, 1000.000000000000000 ) ;
#19 = COORDINATED_UNIVERSAL_TIME_OFFSET ( 5, 0, .BEHIND. ) ;
#20 = APPROVAL_DATE_TIME ( #158, #14 ) ;
#21 = ORIENTED_EDGE ( 'NONE', *, *, #58, .F. ) ;
#22 = ORIENTED_EDGE ( 'NONE', *, *, #31, .F. ) ;
#23 = CARTESIAN_POINT ( 'NONE',  ( 3.000000000000000000, 0.0000000000000000000, 0.0000000000000000000 ) ) ;
#24 = VERTEX_POINT ( 'NONE', #46 ) ;
#25 = APPROVAL_ROLE ( '' ) ;
#26 = COORDINATED_UNIVERSAL_TIME_OFFSET ( 5, 0, .BEHIND. ) ;
#27 = CIRCLE ( 'NONE', #174, 25.00000000000000000 ) ;
#28 = SECURITY_CLASSIFICATION ( '', '', #9 ) ;
#29 = CYLINDRICAL_SURFACE ( 'NONE', #90, 25.00000000000000000 ) ;
#30 = ADVANCED_FACE ( 'NONE', ( #161 ), #29, .T. ) ;
#31 = EDGE_CURVE ( 'NONE', #32, #94, #125, .T. ) ;
#32 = VERTEX_POINT ( 'NONE', #100 ) ;
#33 = DIRECTION ( 'NONE',  ( 0.0000000000000000000, 0.0000000000000000000, -1.000000000000000000 ) ) ;
#34 = CARTESIAN_POINT ( 'NONE',  ( 3.000000000000000000, 3.061616997868383000E-015, -25.00000000000000000 ) ) ;
#35 = CARTESIAN_POINT ( 'NONE',  ( 3.000000000000000000, 0.0000000000000000000, 0.0000000000000000000 ) ) ;
#36 = CARTESIAN_POINT ( 'NONE',  ( 0.0000000000000000000, 0.0000000000000000000, 0.0000000000000000000 ) ) ;
#37 = ORIENTED_EDGE ( 'NONE', *, *, #96, .T. ) ;
#38 = CIRCLE ( 'NONE', #82, 25.00000000000000000 ) ;
#39 = CC_DESIGN_APPROVAL ( #14, ( #28 ) ) ;
#40 = CALENDAR_DATE ( 2017, 1, 2 ) ;
#41 = PERSON_AND_ORGANIZATION ( #115, #112 ) ;
#42 = CC_DESIGN_DATE_AND_TIME_ASSIGNMENT ( #51, #74, ( #28 ) ) ;
#43 = ADVANCED_FACE ( 'NONE', ( #72 ), #98, .T. ) ;
#44 = CARTESIAN_POINT ( 'NONE',  ( 0.0000000000000000000, 0.0000000000000000000, 0.0000000000000000000 ) ) ;
#45 = PERSON_AND_ORGANIZATION ( #115, #112 ) ;
#46 = CARTESIAN_POINT ( 'NONE',  ( 3.000000000000000000, 0.0000000000000000000, 25.00000000000000000 ) ) ;
#47 = CC_DESIGN_PERSON_AND_ORGANIZATION_ASSIGNMENT ( #117, #113, ( #80 ) ) ;
#48 = CARTESIAN_POINT ( 'NONE',  ( 3.000000000000000000, 0.0000000000000000000, 0.0000000000000000000 ) ) ;
#49 = MECHANICAL_CONTEXT ( 'NONE', #8, 'mechanical' ) ;
#50 = DATE_AND_TIME ( #40, #87 ) ;
#51 = DATE_AND_TIME ( #133, #135 ) ;
#52 = DATE_TIME_ROLE ( 'creation_date' ) ;
#53 = CC_DESIGN_SECURITY_CLASSIFICATION ( #28, ( #152 ) ) ;
#54 = ORIENTED_EDGE ( 'NONE', *, *, #156, .F. ) ;
#55 = PRODUCT_DEFINITION_SHAPE ( 'NONE', 'NONE',  #61 ) ;
#56 = ORIENTED_EDGE ( 'NONE', *, *, #58, .T. ) ;
#57 = LOCAL_TIME ( 11, 31, 44.00000000000000000, #19 ) ;
#58 = EDGE_CURVE ( 'NONE', #69, #24, #27, .T. ) ;
#59 = APPROVAL_ROLE ( '' ) ;
#60 = LOCAL_TIME ( 11, 31, 44.00000000000000000, #122 ) ;
#61 = PRODUCT_DEFINITION ( 'UNKNOWN', '', #152, #76 ) ;
#62 = EDGE_LOOP ( 'NONE', ( #22, #148 ) ) ;
#63 = DIRECTION ( 'NONE',  ( -1.000000000000000000, -0.0000000000000000000, -0.0000000000000000000 ) ) ;
#64 = PRODUCT_RELATED_PRODUCT_CATEGORY ( 'detail', '', ( #80 ) ) ;
#65 = APPROVAL_PERSON_ORGANIZATION ( #2, #92, #25 ) ;
#66 = DIRECTION ( 'NONE',  ( -1.000000000000000000, -0.0000000000000000000, -0.0000000000000000000 ) ) ;
#67 = PLANE ( 'NONE',  #127 ) ;
#68 =( LENGTH_UNIT ( ) NAMED_UNIT ( * ) SI_UNIT ( .MILLI., .METRE. ) );
#69 = VERTEX_POINT ( 'NONE', #3 ) ;
#70 = APPLICATION_PROTOCOL_DEFINITION ( 'international standard', 'config_control_design', 1994, #154 ) ;
#71 = DATE_AND_TIME ( #146, #60 ) ;
#72 = FACE_OUTER_BOUND ( 'NONE', #17, .T. ) ;
#73 = PERSON_AND_ORGANIZATION ( #115, #112 ) ;
#74 = DATE_TIME_ROLE ( 'classification_date' ) ;
#75 =( GEOMETRIC_REPRESENTATION_CONTEXT ( 3 ) GLOBAL_UNCERTAINTY_ASSIGNED_CONTEXT ( ( #84 ) ) GLOBAL_UNIT_ASSIGNED_CONTEXT ( ( #68, #166, #6 ) ) REPRESENTATION_CONTEXT ( 'NONE', 'WORKASPACE' ) );
#76 = DESIGN_CONTEXT ( 'detailed design', #154, 'design' ) ;
#77 = LINE ( 'NONE', #34, #128 ) ;
#78 = LOCAL_TIME ( 11, 31, 44.00000000000000000, #170 ) ;
#79 = DIRECTION ( 'NONE',  ( 0.0000000000000000000, 0.0000000000000000000, -1.000000000000000000 ) ) ;
#80 = PRODUCT ( 'Web Model 89570', 'Web Model 89570', '', ( #49 ) ) ;
#81 = ORIENTED_EDGE ( 'NONE', *, *, #156, .T. ) ;
#82 = AXIS2_PLACEMENT_3D ( 'NONE', #111, #165, #79 ) ;
#83 = DIRECTION ( 'NONE',  ( 0.0000000000000000000, 0.0000000000000000000, -1.000000000000000000 ) ) ;
#84 = UNCERTAINTY_MEASURE_WITH_UNIT (LENGTH_MEASURE( 1.000000000000000100E-005 ), #68, 'distance_accuracy_value', 'NONE');
#85 = APPROVAL_ROLE ( '' ) ;
#86 = PERSON_AND_ORGANIZATION_ROLE ( 'creator' ) ;
#87 = LOCAL_TIME ( 11, 31, 44.00000000000000000, #26 ) ;
#88 = LINE ( 'NONE', #149, #18 ) ;
#89 = ADVANCED_BREP_SHAPE_REPRESENTATION ( 'Web Model 89570', ( #11, #129 ), #75 ) ;
#90 = AXIS2_PLACEMENT_3D ( 'NONE', #23, #108, #120 ) ;
#91 = ORIENTED_EDGE ( 'NONE', *, *, #157, .T. ) ;
#92 = APPROVAL ( #141, 'UNSPECIFIED' ) ;
#93 = CLOSED_SHELL ( 'NONE', ( #30, #119, #43, #106 ) ) ;
#94 = VERTEX_POINT ( 'NONE', #163 ) ;
#95 = COORDINATED_UNIVERSAL_TIME_OFFSET ( 5, 0, .BEHIND. ) ;
#96 = EDGE_CURVE ( 'NONE', #24, #69, #38, .T. ) ;
#97 = DIRECTION ( 'NONE',  ( 1.000000000000000000, 0.0000000000000000000, 0.0000000000000000000 ) ) ;
#98 = PLANE ( 'NONE',  #103 ) ;
#99 = DIRECTION ( 'NONE',  ( 1.000000000000000000, 0.0000000000000000000, 0.0000000000000000000 ) ) ;
#100 = CARTESIAN_POINT ( 'NONE',  ( 0.0000000000000000000, 0.0000000000000000000, 25.00000000000000000 ) ) ;
#101 = APPROVAL_DATE_TIME ( #50, #92 ) ;
#102 = DIRECTION ( 'NONE',  ( 1.000000000000000000, 0.0000000000000000000, 0.0000000000000000000 ) ) ;
#103 = AXIS2_PLACEMENT_3D ( 'NONE', #5, #124, #83 ) ;
#104 = CALENDAR_DATE ( 2017, 1, 2 ) ;
#105 = CC_DESIGN_PERSON_AND_ORGANIZATION_ASSIGNMENT ( #45, #86, ( #61 ) ) ;
#106 = ADVANCED_FACE ( 'NONE', ( #153 ), #67, .F. ) ;
#107 = EDGE_CURVE ( 'NONE', #24, #32, #88, .T. ) ;
#108 = DIRECTION ( 'NONE',  ( -1.000000000000000000, -0.0000000000000000000, -0.0000000000000000000 ) ) ;
#109 = PERSON_AND_ORGANIZATION_ROLE ( 'classification_officer' ) ;
#110 = DIRECTION ( 'NONE',  ( 0.0000000000000000000, 0.0000000000000000000, -1.000000000000000000 ) ) ;
#111 = CARTESIAN_POINT ( 'NONE',  ( 3.000000000000000000, 0.0000000000000000000, 0.0000000000000000000 ) ) ;
#112 = ORGANIZATION ( 'UNSPECIFIED', 'UNSPECIFIED', '' ) ;
#113 = PERSON_AND_ORGANIZATION_ROLE ( 'design_owner' ) ;
#114 = DATE_AND_TIME ( #104, #78 ) ;
#115 = PERSON ( 'UNSPECIFIED', 'UNSPECIFIED', 'UNSPECIFIED', ('UNSPECIFIED'), ('UNSPECIFIED'), ('UNSPECIFIED') ) ;
#116 = EDGE_LOOP ( 'NONE', ( #54, #144, #130, #134 ) ) ;
#117 = PERSON_AND_ORGANIZATION ( #115, #112 ) ;
#118 = APPROVAL ( #142, 'UNSPECIFIED' ) ;
#119 = ADVANCED_FACE ( 'NONE', ( #13 ), #175, .T. ) ;
#120 = DIRECTION ( 'NONE',  ( 0.0000000000000000000, 0.0000000000000000000, 1.000000000000000000 ) ) ;
#121 = CC_DESIGN_APPROVAL ( #118, ( #61 ) ) ;
#122 = COORDINATED_UNIVERSAL_TIME_OFFSET ( 5, 0, .BEHIND. ) ;
#123 = DIRECTION ( 'NONE',  ( -1.000000000000000000, -0.0000000000000000000, -0.0000000000000000000 ) ) ;
#124 = DIRECTION ( 'NONE',  ( 1.000000000000000000, 0.0000000000000000000, 0.0000000000000000000 ) ) ;
#125 = CIRCLE ( 'NONE', #162, 25.00000000000000000 ) ;
#126 = APPLICATION_PROTOCOL_DEFINITION ( 'international standard', 'config_control_design', 1994, #8 ) ;
#127 = AXIS2_PLACEMENT_3D ( 'NONE', #44, #99, #110 ) ;
#128 = VECTOR ( 'NONE', #123, 1000.000000000000000 ) ;
#129 = AXIS2_PLACEMENT_3D ( 'NONE', #137, #1, #102 ) ;
#130 = ORIENTED_EDGE ( 'NONE', *, *, #107, .T. ) ;
#131 = APPROVAL_PERSON_ORGANIZATION ( #41, #14, #59 ) ;
#132 = SHAPE_DEFINITION_REPRESENTATION ( #55, #89 ) ;
#133 = CALENDAR_DATE ( 2017, 1, 2 ) ;
#134 = ORIENTED_EDGE ( 'NONE', *, *, #31, .T. ) ;
#135 = LOCAL_TIME ( 11, 31, 44.00000000000000000, #95 ) ;
#136 = CC_DESIGN_DATE_AND_TIME_ASSIGNMENT ( #71, #52, ( #61 ) ) ;
#137 = CARTESIAN_POINT ( 'NONE',  ( 0.0000000000000000000, 0.0000000000000000000, 0.0000000000000000000 ) ) ;
#138 = CC_DESIGN_PERSON_AND_ORGANIZATION_ASSIGNMENT ( #171, #109, ( #28 ) ) ;
#139 = DIRECTION ( 'NONE',  ( 0.0000000000000000000, 0.0000000000000000000, -1.000000000000000000 ) ) ;
#140 = CIRCLE ( 'NONE', #143, 25.00000000000000000 ) ;
#141 = APPROVAL_STATUS ( 'not_yet_approved' ) ;
#142 = APPROVAL_STATUS ( 'not_yet_approved' ) ;
#143 = AXIS2_PLACEMENT_3D ( 'NONE', #36, #97, #16 ) ;
#144 = ORIENTED_EDGE ( 'NONE', *, *, #96, .F. ) ;
#145 = CALENDAR_DATE ( 2017, 1, 2 ) ;
#146 = CALENDAR_DATE ( 2017, 1, 2 ) ;
#147 = AXIS2_PLACEMENT_3D ( 'NONE', #35, #66, #164 ) ;
#148 = ORIENTED_EDGE ( 'NONE', *, *, #157, .F. ) ;
#149 = CARTESIAN_POINT ( 'NONE',  ( 3.000000000000000000, 0.0000000000000000000, 25.00000000000000000 ) ) ;
#150 = CC_DESIGN_APPROVAL ( #92, ( #152 ) ) ;
#151 = CARTESIAN_POINT ( 'NONE',  ( 0.0000000000000000000, 0.0000000000000000000, 0.0000000000000000000 ) ) ;
#152 = PRODUCT_DEFINITION_FORMATION_WITH_SPECIFIED_SOURCE ( 'ANY', '', #80, .NOT_KNOWN. ) ;
#153 = FACE_OUTER_BOUND ( 'NONE', #62, .T. ) ;
#154 = APPLICATION_CONTEXT ( 'configuration controlled 3d designs of mechanical parts and assemblies' ) ;
#155 = PERSON_AND_ORGANIZATION_ROLE ( 'creator' ) ;
#156 = EDGE_CURVE ( 'NONE', #69, #94, #77, .T. ) ;
#157 = EDGE_CURVE ( 'NONE', #94, #32, #140, .T. ) ;
#158 = DATE_AND_TIME ( #145, #57 ) ;
#159 = APPROVAL_PERSON_ORGANIZATION ( #7, #118, #85 ) ;
#160 = CC_DESIGN_PERSON_AND_ORGANIZATION_ASSIGNMENT ( #167, #155, ( #152 ) ) ;
#161 = FACE_OUTER_BOUND ( 'NONE', #172, .T. ) ;
#162 = AXIS2_PLACEMENT_3D ( 'NONE', #151, #4, #33 ) ;
#163 = CARTESIAN_POINT ( 'NONE',  ( 0.0000000000000000000, 3.061616997868383000E-015, -25.00000000000000000 ) ) ;
#164 = DIRECTION ( 'NONE',  ( 0.0000000000000000000, 0.0000000000000000000, 1.000000000000000000 ) ) ;
#165 = DIRECTION ( 'NONE',  ( 1.000000000000000000, 0.0000000000000000000, 0.0000000000000000000 ) ) ;
#166 =( NAMED_UNIT ( * ) PLANE_ANGLE_UNIT ( ) SI_UNIT ( $, .RADIAN. ) );
#167 = PERSON_AND_ORGANIZATION ( #115, #112 ) ;
#168 = PERSON_AND_ORGANIZATION_ROLE ( 'design_supplier' ) ;
#169 = CC_DESIGN_PERSON_AND_ORGANIZATION_ASSIGNMENT ( #73, #168, ( #152 ) ) ;
#170 = COORDINATED_UNIVERSAL_TIME_OFFSET ( 5, 0, .BEHIND. ) ;
#171 = PERSON_AND_ORGANIZATION ( #115, #112 ) ;
#172 = EDGE_LOOP ( 'NONE', ( #21, #81, #91, #12 ) ) ;
#173 = APPROVAL_STATUS ( 'not_yet_approved' ) ;
#174 = AXIS2_PLACEMENT_3D ( 'NONE', #48, #15, #139 ) ;
#175 = CYLINDRICAL_SURFACE ( 'NONE', #147, 25.00000000000000000 ) ;
ENDSEC;
END-ISO-10303-21;
