ISO-10303-21;
HEADER;
FILE_DESCRIPTION (( 'STEP AP203' ),
    '1' );
FILE_NAME ('Web Model 45817_16013.step',
    '2020-10-21T18:31:41',
    ( '' ),
    ( '' ),
    'SwSTEP 2.0',
    'SolidWorks 2018',
    '' );
FILE_SCHEMA (( 'CONFIG_CONTROL_DESIGN' ));
ENDSEC;

DATA;
#1 = FACE_OUTER_BOUND ( 'NONE', #142, .T. ) ;
#2 = APPROVAL ( #103, 'UNSPECIFIED' ) ;
#3 = APPROVAL ( #147, 'UNSPECIFIED' ) ;
#4 = LOCAL_TIME ( 14, 31, 41.00000000000000000, #135 ) ;
#5 = CARTESIAN_POINT ( 'NONE',  ( 0.0000000000000000000, 0.0000000000000000000, 3.180000000000000160 ) ) ;
#6 = EDGE_CURVE ( 'NONE', #95, #97, #29, .T. ) ;
#7 = DIRECTION ( 'NONE',  ( 0.0000000000000000000, 0.0000000000000000000, 1.000000000000000000 ) ) ;
#8 = CARTESIAN_POINT ( 'NONE',  ( 0.0000000000000000000, 0.0000000000000000000, 0.0000000000000000000 ) ) ;
#9 = APPROVAL_PERSON_ORGANIZATION ( #123, #64, #73 ) ;
#10 = PRODUCT_RELATED_PRODUCT_CATEGORY ( 'detail', '', ( #105 ) ) ;
#11 = MANIFOLD_SOLID_BREP ( 'Boss-Extrude1', #42 ) ;
#12 = DIRECTION ( 'NONE',  ( -1.000000000000000000, 0.0000000000000000000, 0.0000000000000000000 ) ) ;
#13 = ORGANIZATION ( 'UNSPECIFIED', 'UNSPECIFIED', '' ) ;
#14 = CARTESIAN_POINT ( 'NONE',  ( 0.0000000000000000000, 0.0000000000000000000, 3.180000000000000160 ) ) ;
#15 = DIRECTION ( 'NONE',  ( 0.0000000000000000000, 0.0000000000000000000, 1.000000000000000000 ) ) ;
#16 = APPROVAL_DATE_TIME ( #165, #3 ) ;
#17 = DIRECTION ( 'NONE',  ( 1.000000000000000000, 0.0000000000000000000, 0.0000000000000000000 ) ) ;
#18 =( NAMED_UNIT ( * ) SI_UNIT ( $, .STERADIAN. ) SOLID_ANGLE_UNIT ( ) );
#19 = DATE_TIME_ROLE ( 'creation_date' ) ;
#20 = ADVANCED_FACE ( 'NONE', ( #39 ), #132, .T. ) ;
#21 = AXIS2_PLACEMENT_3D ( 'NONE', #145, #7, #59 ) ;
#22 = FACE_OUTER_BOUND ( 'NONE', #26, .T. ) ;
#23 = EDGE_LOOP ( 'NONE', ( #107, #136, #50, #162 ) ) ;
#24 = COORDINATED_UNIVERSAL_TIME_OFFSET ( 5, 0, .BEHIND. ) ;
#25 = EDGE_CURVE ( 'NONE', #97, #167, #111, .T. ) ;
#26 = EDGE_LOOP ( 'NONE', ( #170, #134 ) ) ;
#27 = DATE_AND_TIME ( #143, #168 ) ;
#28 = CC_DESIGN_PERSON_AND_ORGANIZATION_ASSIGNMENT ( #175, #106, ( #88 ) ) ;
#29 = LINE ( 'NONE', #83, #174 ) ;
#30 = APPLICATION_CONTEXT ( 'configuration controlled 3d designs of mechanical parts and assemblies' ) ;
#31 = CARTESIAN_POINT ( 'NONE',  ( 0.0000000000000000000, 0.0000000000000000000, 3.180000000000000160 ) ) ;
#32 = ORIENTED_EDGE ( 'NONE', *, *, #157, .T. ) ;
#33 = AXIS2_PLACEMENT_3D ( 'NONE', #31, #169, #34 ) ;
#34 = DIRECTION ( 'NONE',  ( 1.000000000000000000, 0.0000000000000000000, 0.0000000000000000000 ) ) ;
#35 = DIRECTION ( 'NONE',  ( 0.0000000000000000000, 0.0000000000000000000, 1.000000000000000000 ) ) ;
#36 = ADVANCED_FACE ( 'NONE', ( #22 ), #87, .F. ) ;
#37 = ORIENTED_EDGE ( 'NONE', *, *, #58, .F. ) ;
#38 = APPROVAL_DATE_TIME ( #27, #2 ) ;
#39 = FACE_OUTER_BOUND ( 'NONE', #23, .T. ) ;
#40 = ORIENTED_EDGE ( 'NONE', *, *, #58, .T. ) ;
#41 = CC_DESIGN_DATE_AND_TIME_ASSIGNMENT ( #86, #63, ( #60 ) ) ;
#42 = CLOSED_SHELL ( 'NONE', ( #20, #90, #91, #36 ) ) ;
#43 = CARTESIAN_POINT ( 'NONE',  ( 25.39999999999999858, 3.110602869834276076E-15, 0.0000000000000000000 ) ) ;
#44 = APPLICATION_PROTOCOL_DEFINITION ( 'international standard', 'config_control_design', 1994, #89 ) ;
#45 =( NAMED_UNIT ( * ) PLANE_ANGLE_UNIT ( ) SI_UNIT ( $, .RADIAN. ) );
#46 = PERSON_AND_ORGANIZATION_ROLE ( 'design_owner' ) ;
#47 = PERSON_AND_ORGANIZATION ( #150, #13 ) ;
#48 = CC_DESIGN_APPROVAL ( #2, ( #88 ) ) ;
#49 = CALENDAR_DATE ( 2020, 21, 10 ) ;
#50 = ORIENTED_EDGE ( 'NONE', *, *, #25, .T. ) ;
#51 = PERSON_AND_ORGANIZATION ( #150, #13 ) ;
#52 = AXIS2_PLACEMENT_3D ( 'NONE', #172, #35, #56 ) ;
#53 = PRODUCT_DEFINITION_FORMATION_WITH_SPECIFIED_SOURCE ( 'ANY', '', #105, .NOT_KNOWN. ) ;
#54 = CYLINDRICAL_SURFACE ( 'NONE', #70, 25.39999999999999858 ) ;
#55 = EDGE_CURVE ( 'NONE', #95, #125, #75, .T. ) ;
#56 = DIRECTION ( 'NONE',  ( 1.000000000000000000, 0.0000000000000000000, 0.0000000000000000000 ) ) ;
#57 = MECHANICAL_CONTEXT ( 'NONE', #89, 'mechanical' ) ;
#58 = EDGE_CURVE ( 'NONE', #125, #95, #138, .T. ) ;
#59 = DIRECTION ( 'NONE',  ( 1.000000000000000000, 0.0000000000000000000, 0.0000000000000000000 ) ) ;
#60 = SECURITY_CLASSIFICATION ( '', '', #80 ) ;
#61 = APPROVAL_ROLE ( '' ) ;
#62 = CARTESIAN_POINT ( 'NONE',  ( -25.39999999999999858, 0.0000000000000000000, 0.0000000000000000000 ) ) ;
#63 = DATE_TIME_ROLE ( 'classification_date' ) ;
#64 = APPROVAL ( #72, 'UNSPECIFIED' ) ;
#65 = LOCAL_TIME ( 14, 31, 41.00000000000000000, #113 ) ;
#66 = ORIENTED_EDGE ( 'NONE', *, *, #93, .T. ) ;
#67 = DESIGN_CONTEXT ( 'detailed design', #30, 'design' ) ;
#68 = LINE ( 'NONE', #130, #119 ) ;
#69 = PERSON_AND_ORGANIZATION ( #150, #13 ) ;
#70 = AXIS2_PLACEMENT_3D ( 'NONE', #117, #121, #118 ) ;
#71 = PERSON_AND_ORGANIZATION ( #150, #13 ) ;
#72 = APPROVAL_STATUS ( 'not_yet_approved' ) ;
#73 = APPROVAL_ROLE ( '' ) ;
#74 = APPLICATION_PROTOCOL_DEFINITION ( 'international standard', 'config_control_design', 1994, #30 ) ;
#75 = CIRCLE ( 'NONE', #21, 25.39999999999999858 ) ;
#76 = COORDINATED_UNIVERSAL_TIME_OFFSET ( 5, 0, .BEHIND. ) ;
#77 = CIRCLE ( 'NONE', #122, 25.39999999999999858 ) ;
#78 = ORIENTED_EDGE ( 'NONE', *, *, #55, .T. ) ;
#79 = AXIS2_PLACEMENT_3D ( 'NONE', #5, #116, #159 ) ;
#80 = SECURITY_CLASSIFICATION_LEVEL ( 'unclassified' ) ;
#81 = CC_DESIGN_PERSON_AND_ORGANIZATION_ASSIGNMENT ( #47, #152, ( #53 ) ) ;
#82 = PERSON_AND_ORGANIZATION ( #150, #13 ) ;
#83 = CARTESIAN_POINT ( 'NONE',  ( 25.39999999999999858, 3.110602869834276076E-15, 3.180000000000000160 ) ) ;
#84 = CARTESIAN_POINT ( 'NONE',  ( 0.0000000000000000000, 0.0000000000000000000, 0.0000000000000000000 ) ) ;
#85 = DIRECTION ( 'NONE',  ( 1.000000000000000000, 0.0000000000000000000, 0.0000000000000000000 ) ) ;
#86 = DATE_AND_TIME ( #92, #4 ) ;
#87 = PLANE ( 'NONE',  #112 ) ;
#88 = PRODUCT_DEFINITION ( 'UNKNOWN', '', #53, #67 ) ;
#89 = APPLICATION_CONTEXT ( 'configuration controlled 3d designs of mechanical parts and assemblies' ) ;
#90 = ADVANCED_FACE ( 'NONE', ( #99 ), #54, .T. ) ;
#91 = ADVANCED_FACE ( 'NONE', ( #1 ), #151, .T. ) ;
#92 = CALENDAR_DATE ( 2020, 21, 10 ) ;
#93 = EDGE_CURVE ( 'NONE', #125, #167, #68, .T. ) ;
#94 = CC_DESIGN_DATE_AND_TIME_ASSIGNMENT ( #154, #19, ( #88 ) ) ;
#95 = VERTEX_POINT ( 'NONE', #128 ) ;
#96 = SHAPE_DEFINITION_REPRESENTATION ( #108, #139 ) ;
#97 = VERTEX_POINT ( 'NONE', #43 ) ;
#98 = LOCAL_TIME ( 14, 31, 41.00000000000000000, #171 ) ;
#99 = FACE_OUTER_BOUND ( 'NONE', #173, .T. ) ;
#100 = DIRECTION ( 'NONE',  ( -0.0000000000000000000, -0.0000000000000000000, -1.000000000000000000 ) ) ;
#101 =( LENGTH_UNIT ( ) NAMED_UNIT ( * ) SI_UNIT ( .MILLI., .METRE. ) );
#102 = ORIENTED_EDGE ( 'NONE', *, *, #6, .F. ) ;
#103 = APPROVAL_STATUS ( 'not_yet_approved' ) ;
#104 = PERSON_AND_ORGANIZATION_ROLE ( 'classification_officer' ) ;
#105 = PRODUCT ( 'Web Model 45817_16013', 'Web Model 45817_16013', '', ( #57 ) ) ;
#106 = PERSON_AND_ORGANIZATION_ROLE ( 'creator' ) ;
#107 = ORIENTED_EDGE ( 'NONE', *, *, #55, .F. ) ;
#108 = PRODUCT_DEFINITION_SHAPE ( 'NONE', 'NONE',  #88 ) ;
#109 = CC_DESIGN_APPROVAL ( #3, ( #60 ) ) ;
#110 = PERSON_AND_ORGANIZATION ( #150, #13 ) ;
#111 = CIRCLE ( 'NONE', #153, 25.39999999999999858 ) ;
#112 = AXIS2_PLACEMENT_3D ( 'NONE', #84, #131, #149 ) ;
#113 = COORDINATED_UNIVERSAL_TIME_OFFSET ( 5, 0, .BEHIND. ) ;
#114 = DIRECTION ( 'NONE',  ( -0.0000000000000000000, -0.0000000000000000000, -1.000000000000000000 ) ) ;
#115 = LOCAL_TIME ( 14, 31, 41.00000000000000000, #76 ) ;
#116 = DIRECTION ( 'NONE',  ( 0.0000000000000000000, 0.0000000000000000000, 1.000000000000000000 ) ) ;
#117 = CARTESIAN_POINT ( 'NONE',  ( 0.0000000000000000000, 0.0000000000000000000, 3.180000000000000160 ) ) ;
#118 = DIRECTION ( 'NONE',  ( -1.000000000000000000, 0.0000000000000000000, 0.0000000000000000000 ) ) ;
#119 = VECTOR ( 'NONE', #129, 1000.000000000000000 ) ;
#120 = CC_DESIGN_SECURITY_CLASSIFICATION ( #60, ( #53 ) ) ;
#121 = DIRECTION ( 'NONE',  ( -0.0000000000000000000, -0.0000000000000000000, -1.000000000000000000 ) ) ;
#122 = AXIS2_PLACEMENT_3D ( 'NONE', #8, #160, #17 ) ;
#123 = PERSON_AND_ORGANIZATION ( #150, #13 ) ;
#124 = AXIS2_PLACEMENT_3D ( 'NONE', #14, #114, #12 ) ;
#125 = VERTEX_POINT ( 'NONE', #148 ) ;
#126 = APPROVAL_PERSON_ORGANIZATION ( #51, #3, #61 ) ;
#127 =( GEOMETRIC_REPRESENTATION_CONTEXT ( 3 ) GLOBAL_UNCERTAINTY_ASSIGNED_CONTEXT ( ( #144 ) ) GLOBAL_UNIT_ASSIGNED_CONTEXT ( ( #101, #45, #18 ) ) REPRESENTATION_CONTEXT ( 'NONE', 'WORKASPACE' ) );
#128 = CARTESIAN_POINT ( 'NONE',  ( 25.39999999999999858, 3.110602869834276076E-15, 3.180000000000000160 ) ) ;
#129 = DIRECTION ( 'NONE',  ( -0.0000000000000000000, -0.0000000000000000000, -1.000000000000000000 ) ) ;
#130 = CARTESIAN_POINT ( 'NONE',  ( -25.39999999999999858, 0.0000000000000000000, 3.180000000000000160 ) ) ;
#131 = DIRECTION ( 'NONE',  ( 0.0000000000000000000, 0.0000000000000000000, 1.000000000000000000 ) ) ;
#132 = CYLINDRICAL_SURFACE ( 'NONE', #124, 25.39999999999999858 ) ;
#133 = CC_DESIGN_PERSON_AND_ORGANIZATION_ASSIGNMENT ( #71, #166, ( #53 ) ) ;
#134 = ORIENTED_EDGE ( 'NONE', *, *, #25, .F. ) ;
#135 = COORDINATED_UNIVERSAL_TIME_OFFSET ( 5, 0, .BEHIND. ) ;
#136 = ORIENTED_EDGE ( 'NONE', *, *, #6, .T. ) ;
#137 = CALENDAR_DATE ( 2020, 21, 10 ) ;
#138 = CIRCLE ( 'NONE', #33, 25.39999999999999858 ) ;
#139 = ADVANCED_BREP_SHAPE_REPRESENTATION ( 'Web Model 45817_16013', ( #11, #52 ), #127 ) ;
#140 = APPROVAL_PERSON_ORGANIZATION ( #69, #2, #164 ) ;
#141 = CALENDAR_DATE ( 2020, 21, 10 ) ;
#142 = EDGE_LOOP ( 'NONE', ( #40, #78 ) ) ;
#143 = CALENDAR_DATE ( 2020, 21, 10 ) ;
#144 = UNCERTAINTY_MEASURE_WITH_UNIT (LENGTH_MEASURE( 1.000000000000000082E-05 ), #101, 'distance_accuracy_value', 'NONE');
#145 = CARTESIAN_POINT ( 'NONE',  ( 0.0000000000000000000, 0.0000000000000000000, 3.180000000000000160 ) ) ;
#146 = CARTESIAN_POINT ( 'NONE',  ( 0.0000000000000000000, 0.0000000000000000000, 0.0000000000000000000 ) ) ;
#147 = APPROVAL_STATUS ( 'not_yet_approved' ) ;
#148 = CARTESIAN_POINT ( 'NONE',  ( -25.39999999999999858, 0.0000000000000000000, 3.180000000000000160 ) ) ;
#149 = DIRECTION ( 'NONE',  ( 1.000000000000000000, 0.0000000000000000000, -0.0000000000000000000 ) ) ;
#150 = PERSON ( 'UNSPECIFIED', 'UNSPECIFIED', 'UNSPECIFIED', ('UNSPECIFIED'), ('UNSPECIFIED'), ('UNSPECIFIED') ) ;
#151 = PLANE ( 'NONE',  #79 ) ;
#152 = PERSON_AND_ORGANIZATION_ROLE ( 'creator' ) ;
#153 = AXIS2_PLACEMENT_3D ( 'NONE', #146, #15, #85 ) ;
#154 = DATE_AND_TIME ( #137, #98 ) ;
#155 = CC_DESIGN_APPROVAL ( #64, ( #53 ) ) ;
#156 = CC_DESIGN_PERSON_AND_ORGANIZATION_ASSIGNMENT ( #110, #46, ( #105 ) ) ;
#157 = EDGE_CURVE ( 'NONE', #167, #97, #77, .T. ) ;
#158 = APPROVAL_DATE_TIME ( #163, #64 ) ;
#159 = DIRECTION ( 'NONE',  ( 1.000000000000000000, 0.0000000000000000000, -0.0000000000000000000 ) ) ;
#160 = DIRECTION ( 'NONE',  ( 0.0000000000000000000, 0.0000000000000000000, 1.000000000000000000 ) ) ;
#161 = CC_DESIGN_PERSON_AND_ORGANIZATION_ASSIGNMENT ( #82, #104, ( #60 ) ) ;
#162 = ORIENTED_EDGE ( 'NONE', *, *, #93, .F. ) ;
#163 = DATE_AND_TIME ( #49, #115 ) ;
#164 = APPROVAL_ROLE ( '' ) ;
#165 = DATE_AND_TIME ( #141, #65 ) ;
#166 = PERSON_AND_ORGANIZATION_ROLE ( 'design_supplier' ) ;
#167 = VERTEX_POINT ( 'NONE', #62 ) ;
#168 = LOCAL_TIME ( 14, 31, 41.00000000000000000, #24 ) ;
#169 = DIRECTION ( 'NONE',  ( 0.0000000000000000000, 0.0000000000000000000, 1.000000000000000000 ) ) ;
#170 = ORIENTED_EDGE ( 'NONE', *, *, #157, .F. ) ;
#171 = COORDINATED_UNIVERSAL_TIME_OFFSET ( 5, 0, .BEHIND. ) ;
#172 = CARTESIAN_POINT ( 'NONE',  ( 0.0000000000000000000, 0.0000000000000000000, 0.0000000000000000000 ) ) ;
#173 = EDGE_LOOP ( 'NONE', ( #102, #37, #66, #32 ) ) ;
#174 = VECTOR ( 'NONE', #100, 1000.000000000000000 ) ;
#175 = PERSON_AND_ORGANIZATION ( #150, #13 ) ;
ENDSEC;
END-ISO-10303-21;
