ISO-10303-21;
HEADER;
FILE_DESCRIPTION (( 'STEP AP203' ),
    '1' );
FILE_NAME ('Web Model 37688_38781.step',
    '2018-08-03T18:41:37',
    ( '' ),
    ( '' ),
    'SwSTEP 2.0',
    'SolidWorks 2016',
    '' );
FILE_SCHEMA (( 'CONFIG_CONTROL_DESIGN' ));
ENDSEC;

DATA;
#1 = DESIGN_CONTEXT ( 'detailed design', #150, 'design' ) ;
#2 = FACE_OUTER_BOUND ( 'NONE', #73, .T. ) ;
#3 = APPROVAL ( #135, 'UNSPECIFIED' ) ;
#4 = ORIENTED_EDGE ( 'NONE', *, *, #174, .T. ) ;
#5 = PERSON_AND_ORGANIZATION ( #153, #165 ) ;
#6 = APPROVAL_ROLE ( '' ) ;
#7 = APPROVAL_DATE_TIME ( #77, #142 ) ;
#8 = APPROVAL_STATUS ( 'not_yet_approved' ) ;
#9 = EDGE_CURVE ( 'NONE', #139, #130, #112, .T. ) ;
#10 = LOCAL_TIME ( 14, 41, 37.00000000000000000, #113 ) ;
#11 = SECURITY_CLASSIFICATION ( '', '', #23 ) ;
#12 = PERSON_AND_ORGANIZATION ( #153, #165 ) ;
#13 = ORIENTED_EDGE ( 'NONE', *, *, #90, .F. ) ;
#14 = COORDINATED_UNIVERSAL_TIME_OFFSET ( 5, 0, .BEHIND. ) ;
#15 = DIRECTION ( 'NONE',  ( 1.000000000000000000, 0.0000000000000000000, 0.0000000000000000000 ) ) ;
#16 = CARTESIAN_POINT ( 'NONE',  ( 0.0000000000000000000, 0.0000000000000000000, 3.174999999999999800 ) ) ;
#17 = CC_DESIGN_DATE_AND_TIME_ASSIGNMENT ( #18, #133, ( #11 ) ) ;
#18 = DATE_AND_TIME ( #71, #120 ) ;
#19 = UNCERTAINTY_MEASURE_WITH_UNIT (LENGTH_MEASURE( 1.000000000000000100E-005 ), #21, 'distance_accuracy_value', 'NONE');
#20 = LINE ( 'NONE', #81, #69 ) ;
#21 =( LENGTH_UNIT ( ) NAMED_UNIT ( * ) SI_UNIT ( .MILLI., .METRE. ) );
#22 = DATE_AND_TIME ( #127, #42 ) ;
#23 = SECURITY_CLASSIFICATION_LEVEL ( 'unclassified' ) ;
#24 = DATE_TIME_ROLE ( 'creation_date' ) ;
#25 = CC_DESIGN_APPROVAL ( #53, ( #27 ) ) ;
#26 = ORIENTED_EDGE ( 'NONE', *, *, #72, .F. ) ;
#27 = PRODUCT_DEFINITION_FORMATION_WITH_SPECIFIED_SOURCE ( 'ANY', '', #34, .NOT_KNOWN. ) ;
#28 = DIRECTION ( 'NONE',  ( -1.000000000000000000, 0.0000000000000000000, 0.0000000000000000000 ) ) ;
#29 = EDGE_LOOP ( 'NONE', ( #126, #100 ) ) ;
#30 = CC_DESIGN_DATE_AND_TIME_ASSIGNMENT ( #82, #24, ( #45 ) ) ;
#31 = CARTESIAN_POINT ( 'NONE',  ( 0.0000000000000000000, 0.0000000000000000000, 3.174999999999999800 ) ) ;
#32 = CIRCLE ( 'NONE', #131, 6.349999999999999600 ) ;
#33 = CARTESIAN_POINT ( 'NONE',  ( 6.349999999999999600, 7.776507174585692200E-016, 3.174999999999999800 ) ) ;
#34 = PRODUCT ( 'Web Model 37688_38781', 'Web Model 37688_38781', '', ( #85 ) ) ;
#35 = CC_DESIGN_PERSON_AND_ORGANIZATION_ASSIGNMENT ( #106, #107, ( #27 ) ) ;
#36 = ORIENTED_EDGE ( 'NONE', *, *, #84, .T. ) ;
#37 = COORDINATED_UNIVERSAL_TIME_OFFSET ( 5, 0, .BEHIND. ) ;
#38 = DIRECTION ( 'NONE',  ( 0.0000000000000000000, 0.0000000000000000000, 1.000000000000000000 ) ) ;
#39 = AXIS2_PLACEMENT_3D ( 'NONE', #59, #89, #70 ) ;
#40 = PERSON_AND_ORGANIZATION_ROLE ( 'design_owner' ) ;
#41 = ORIENTED_EDGE ( 'NONE', *, *, #67, .T. ) ;
#42 = LOCAL_TIME ( 14, 41, 37.00000000000000000, #58 ) ;
#43 = CC_DESIGN_PERSON_AND_ORGANIZATION_ASSIGNMENT ( #98, #96, ( #11 ) ) ;
#44 = ADVANCED_FACE ( 'NONE', ( #56 ), #172, .F. ) ;
#45 = PRODUCT_DEFINITION ( 'UNKNOWN', '', #27, #1 ) ;
#46 = PERSON_AND_ORGANIZATION ( #153, #165 ) ;
#47 = CARTESIAN_POINT ( 'NONE',  ( 6.349999999999999600, 7.776507174585692200E-016, -3.174999999999999800 ) ) ;
#48 = CC_DESIGN_SECURITY_CLASSIFICATION ( #11, ( #27 ) ) ;
#49 = DIRECTION ( 'NONE',  ( 0.0000000000000000000, 0.0000000000000000000, 1.000000000000000000 ) ) ;
#50 = DIRECTION ( 'NONE',  ( -0.0000000000000000000, -0.0000000000000000000, -1.000000000000000000 ) ) ;
#51 = CARTESIAN_POINT ( 'NONE',  ( 0.0000000000000000000, 0.0000000000000000000, 3.174999999999999800 ) ) ;
#52 = CALENDAR_DATE ( 2018, 3, 8 ) ;
#53 = APPROVAL ( #164, 'UNSPECIFIED' ) ;
#54 = APPLICATION_CONTEXT ( 'configuration controlled 3d designs of mechanical parts and assemblies' ) ;
#55 =( NAMED_UNIT ( * ) SI_UNIT ( $, .STERADIAN. ) SOLID_ANGLE_UNIT ( ) );
#56 = FACE_OUTER_BOUND ( 'NONE', #29, .T. ) ;
#57 = ADVANCED_FACE ( 'NONE', ( #68 ), #117, .T. ) ;
#58 = COORDINATED_UNIVERSAL_TIME_OFFSET ( 5, 0, .BEHIND. ) ;
#59 = CARTESIAN_POINT ( 'NONE',  ( 0.0000000000000000000, 0.0000000000000000000, 3.174999999999999800 ) ) ;
#60 = DIRECTION ( 'NONE',  ( -0.0000000000000000000, -0.0000000000000000000, -1.000000000000000000 ) ) ;
#61 = DIRECTION ( 'NONE',  ( 0.0000000000000000000, 0.0000000000000000000, 1.000000000000000000 ) ) ;
#62 = CALENDAR_DATE ( 2018, 3, 8 ) ;
#63 = AXIS2_PLACEMENT_3D ( 'NONE', #16, #102, #119 ) ;
#64 = CC_DESIGN_PERSON_AND_ORGANIZATION_ASSIGNMENT ( #114, #149, ( #27 ) ) ;
#65 = VERTEX_POINT ( 'NONE', #47 ) ;
#66 = CYLINDRICAL_SURFACE ( 'NONE', #136, 6.349999999999999600 ) ;
#67 = EDGE_CURVE ( 'NONE', #130, #65, #116, .T. ) ;
#68 = FACE_OUTER_BOUND ( 'NONE', #123, .T. ) ;
#69 = VECTOR ( 'NONE', #60, 1000.000000000000000 ) ;
#70 = DIRECTION ( 'NONE',  ( 1.000000000000000000, 0.0000000000000000000, -0.0000000000000000000 ) ) ;
#71 = CALENDAR_DATE ( 2018, 3, 8 ) ;
#72 = EDGE_CURVE ( 'NONE', #139, #171, #20, .T. ) ;
#73 = EDGE_LOOP ( 'NONE', ( #146, #159, #137, #36 ) ) ;
#74 = PERSON_AND_ORGANIZATION ( #153, #165 ) ;
#75 = DIRECTION ( 'NONE',  ( 1.000000000000000000, 0.0000000000000000000, 0.0000000000000000000 ) ) ;
#76 = APPROVAL_PERSON_ORGANIZATION ( #145, #142, #108 ) ;
#77 = DATE_AND_TIME ( #52, #109 ) ;
#78 = AXIS2_PLACEMENT_3D ( 'NONE', #124, #38, #75 ) ;
#79 = MANIFOLD_SOLID_BREP ( 'Boss-Extrude1', #105 ) ;
#80 = APPROVAL_DATE_TIME ( #95, #3 ) ;
#81 = CARTESIAN_POINT ( 'NONE',  ( -6.349999999999999600, 0.0000000000000000000, 3.174999999999999800 ) ) ;
#82 = DATE_AND_TIME ( #62, #10 ) ;
#83 = FACE_OUTER_BOUND ( 'NONE', #93, .T. ) ;
#84 = EDGE_CURVE ( 'NONE', #171, #65, #125, .T. ) ;
#85 = MECHANICAL_CONTEXT ( 'NONE', #54, 'mechanical' ) ;
#86 = VECTOR ( 'NONE', #50, 1000.000000000000000 ) ;
#87 =( NAMED_UNIT ( * ) PLANE_ANGLE_UNIT ( ) SI_UNIT ( $, .RADIAN. ) );
#88 = APPROVAL_ROLE ( '' ) ;
#89 = DIRECTION ( 'NONE',  ( 0.0000000000000000000, 0.0000000000000000000, 1.000000000000000000 ) ) ;
#90 = EDGE_CURVE ( 'NONE', #130, #139, #32, .T. ) ;
#91 = DIRECTION ( 'NONE',  ( 1.000000000000000000, 0.0000000000000000000, 0.0000000000000000000 ) ) ;
#92 = CC_DESIGN_PERSON_AND_ORGANIZATION_ASSIGNMENT ( #46, #40, ( #34 ) ) ;
#93 = EDGE_LOOP ( 'NONE', ( #13, #41, #4, #26 ) ) ;
#94 = DIRECTION ( 'NONE',  ( 1.000000000000000000, 0.0000000000000000000, 0.0000000000000000000 ) ) ;
#95 = DATE_AND_TIME ( #148, #132 ) ;
#96 = PERSON_AND_ORGANIZATION_ROLE ( 'classification_officer' ) ;
#97 = AXIS2_PLACEMENT_3D ( 'NONE', #118, #49, #91 ) ;
#98 = PERSON_AND_ORGANIZATION ( #153, #165 ) ;
#99 = ADVANCED_FACE ( 'NONE', ( #83 ), #66, .T. ) ;
#100 = ORIENTED_EDGE ( 'NONE', *, *, #174, .F. ) ;
#101 = CARTESIAN_POINT ( 'NONE',  ( 0.0000000000000000000, 0.0000000000000000000, -3.174999999999999800 ) ) ;
#102 = DIRECTION ( 'NONE',  ( -0.0000000000000000000, -0.0000000000000000000, -1.000000000000000000 ) ) ;
#103 = CARTESIAN_POINT ( 'NONE',  ( -6.349999999999999600, 0.0000000000000000000, -3.174999999999999800 ) ) ;
#104 = AXIS2_PLACEMENT_3D ( 'NONE', #101, #162, #140 ) ;
#105 = CLOSED_SHELL ( 'NONE', ( #99, #155, #57, #44 ) ) ;
#106 = PERSON_AND_ORGANIZATION ( #153, #165 ) ;
#107 = PERSON_AND_ORGANIZATION_ROLE ( 'creator' ) ;
#108 = APPROVAL_ROLE ( '' ) ;
#109 = LOCAL_TIME ( 14, 41, 37.00000000000000000, #37 ) ;
#110 = APPLICATION_PROTOCOL_DEFINITION ( 'international standard', 'config_control_design', 1994, #54 ) ;
#111 = APPLICATION_PROTOCOL_DEFINITION ( 'international standard', 'config_control_design', 1994, #150 ) ;
#112 = CIRCLE ( 'NONE', #168, 6.349999999999999600 ) ;
#113 = COORDINATED_UNIVERSAL_TIME_OFFSET ( 5, 0, .BEHIND. ) ;
#114 = PERSON_AND_ORGANIZATION ( #153, #165 ) ;
#115 = CC_DESIGN_PERSON_AND_ORGANIZATION_ASSIGNMENT ( #74, #166, ( #45 ) ) ;
#116 = LINE ( 'NONE', #175, #86 ) ;
#117 = PLANE ( 'NONE',  #39 ) ;
#118 = CARTESIAN_POINT ( 'NONE',  ( 0.0000000000000000000, 0.0000000000000000000, -3.174999999999999800 ) ) ;
#119 = DIRECTION ( 'NONE',  ( -1.000000000000000000, 0.0000000000000000000, 0.0000000000000000000 ) ) ;
#120 = LOCAL_TIME ( 14, 41, 37.00000000000000000, #154 ) ;
#121 = PRODUCT_DEFINITION_SHAPE ( 'NONE', 'NONE',  #45 ) ;
#122 = AXIS2_PLACEMENT_3D ( 'NONE', #167, #134, #94 ) ;
#123 = EDGE_LOOP ( 'NONE', ( #163, #169 ) ) ;
#124 = CARTESIAN_POINT ( 'NONE',  ( 0.0000000000000000000, 0.0000000000000000000, 0.0000000000000000000 ) ) ;
#125 = CIRCLE ( 'NONE', #97, 6.349999999999999600 ) ;
#126 = ORIENTED_EDGE ( 'NONE', *, *, #84, .F. ) ;
#127 = CALENDAR_DATE ( 2018, 3, 8 ) ;
#128 = DIRECTION ( 'NONE',  ( 0.0000000000000000000, 0.0000000000000000000, 1.000000000000000000 ) ) ;
#129 = CARTESIAN_POINT ( 'NONE',  ( 0.0000000000000000000, 0.0000000000000000000, 3.174999999999999800 ) ) ;
#130 = VERTEX_POINT ( 'NONE', #33 ) ;
#131 = AXIS2_PLACEMENT_3D ( 'NONE', #31, #61, #144 ) ;
#132 = LOCAL_TIME ( 14, 41, 37.00000000000000000, #14 ) ;
#133 = DATE_TIME_ROLE ( 'classification_date' ) ;
#134 = DIRECTION ( 'NONE',  ( 0.0000000000000000000, 0.0000000000000000000, 1.000000000000000000 ) ) ;
#135 = APPROVAL_STATUS ( 'not_yet_approved' ) ;
#136 = AXIS2_PLACEMENT_3D ( 'NONE', #51, #143, #28 ) ;
#137 = ORIENTED_EDGE ( 'NONE', *, *, #72, .T. ) ;
#138 = SHAPE_DEFINITION_REPRESENTATION ( #121, #157 ) ;
#139 = VERTEX_POINT ( 'NONE', #160 ) ;
#140 = DIRECTION ( 'NONE',  ( 1.000000000000000000, 0.0000000000000000000, -0.0000000000000000000 ) ) ;
#141 = APPROVAL_DATE_TIME ( #22, #53 ) ;
#142 = APPROVAL ( #8, 'UNSPECIFIED' ) ;
#143 = DIRECTION ( 'NONE',  ( -0.0000000000000000000, -0.0000000000000000000, -1.000000000000000000 ) ) ;
#144 = DIRECTION ( 'NONE',  ( 1.000000000000000000, 0.0000000000000000000, 0.0000000000000000000 ) ) ;
#145 = PERSON_AND_ORGANIZATION ( #153, #165 ) ;
#146 = ORIENTED_EDGE ( 'NONE', *, *, #67, .F. ) ;
#147 =( GEOMETRIC_REPRESENTATION_CONTEXT ( 3 ) GLOBAL_UNCERTAINTY_ASSIGNED_CONTEXT ( ( #19 ) ) GLOBAL_UNIT_ASSIGNED_CONTEXT ( ( #21, #87, #55 ) ) REPRESENTATION_CONTEXT ( 'NONE', 'WORKASPACE' ) );
#148 = CALENDAR_DATE ( 2018, 3, 8 ) ;
#149 = PERSON_AND_ORGANIZATION_ROLE ( 'design_supplier' ) ;
#150 = APPLICATION_CONTEXT ( 'configuration controlled 3d designs of mechanical parts and assemblies' ) ;
#151 = APPROVAL_PERSON_ORGANIZATION ( #12, #53, #6 ) ;
#152 = CC_DESIGN_APPROVAL ( #142, ( #11 ) ) ;
#153 = PERSON ( 'UNSPECIFIED', 'UNSPECIFIED', 'UNSPECIFIED', ('UNSPECIFIED'), ('UNSPECIFIED'), ('UNSPECIFIED') ) ;
#154 = COORDINATED_UNIVERSAL_TIME_OFFSET ( 5, 0, .BEHIND. ) ;
#155 = ADVANCED_FACE ( 'NONE', ( #2 ), #161, .T. ) ;
#156 = PRODUCT_RELATED_PRODUCT_CATEGORY ( 'detail', '', ( #34 ) ) ;
#157 = ADVANCED_BREP_SHAPE_REPRESENTATION ( 'Web Model 37688_38781', ( #79, #78 ), #147 ) ;
#158 = CC_DESIGN_APPROVAL ( #3, ( #45 ) ) ;
#159 = ORIENTED_EDGE ( 'NONE', *, *, #9, .F. ) ;
#160 = CARTESIAN_POINT ( 'NONE',  ( -6.349999999999999600, 0.0000000000000000000, 3.174999999999999800 ) ) ;
#161 = CYLINDRICAL_SURFACE ( 'NONE', #63, 6.349999999999999600 ) ;
#162 = DIRECTION ( 'NONE',  ( 0.0000000000000000000, 0.0000000000000000000, 1.000000000000000000 ) ) ;
#163 = ORIENTED_EDGE ( 'NONE', *, *, #9, .T. ) ;
#164 = APPROVAL_STATUS ( 'not_yet_approved' ) ;
#165 = ORGANIZATION ( 'UNSPECIFIED', 'UNSPECIFIED', '' ) ;
#166 = PERSON_AND_ORGANIZATION_ROLE ( 'creator' ) ;
#167 = CARTESIAN_POINT ( 'NONE',  ( 0.0000000000000000000, 0.0000000000000000000, -3.174999999999999800 ) ) ;
#168 = AXIS2_PLACEMENT_3D ( 'NONE', #129, #128, #15 ) ;
#169 = ORIENTED_EDGE ( 'NONE', *, *, #90, .T. ) ;
#170 = CIRCLE ( 'NONE', #122, 6.349999999999999600 ) ;
#171 = VERTEX_POINT ( 'NONE', #103 ) ;
#172 = PLANE ( 'NONE',  #104 ) ;
#173 = APPROVAL_PERSON_ORGANIZATION ( #5, #3, #88 ) ;
#174 = EDGE_CURVE ( 'NONE', #65, #171, #170, .T. ) ;
#175 = CARTESIAN_POINT ( 'NONE',  ( 6.349999999999999600, 7.776507174585692200E-016, 3.174999999999999800 ) ) ;
ENDSEC;
END-ISO-10303-21;
