ISO-10303-21;
HEADER;
FILE_DESCRIPTION (( 'STEP AP203' ),
    '1' );
FILE_NAME ('Web Model 48863_48865.step',
    '2017-04-26T16:43:05',
    ( '' ),
    ( '' ),
    'SwSTEP 2.0',
    'SolidWorks 2016',
    '' );
FILE_SCHEMA (( 'CONFIG_CONTROL_DESIGN' ));
ENDSEC;

DATA;
#1 = DATE_AND_TIME ( #296, #314 ) ;
#2 = VERTEX_POINT ( 'NONE', #130 ) ;
#3 = CARTESIAN_POINT ( 'NONE',  ( -6.250000000000000000, 6.250000000000000000, 6.250000000000000000 ) ) ;
#4 =( GEOMETRIC_REPRESENTATION_CONTEXT ( 3 ) GLOBAL_UNCERTAINTY_ASSIGNED_CONTEXT ( ( #175 ) ) GLOBAL_UNIT_ASSIGNED_CONTEXT ( ( #44, #229, #121 ) ) REPRESENTATION_CONTEXT ( 'NONE', 'WORKASPACE' ) );
#5 = DIRECTION ( 'NONE',  ( -0.0000000000000000000, 0.0000000000000000000, 1.000000000000000000 ) ) ;
#6 = CC_DESIGN_PERSON_AND_ORGANIZATION_ASSIGNMENT ( #292, #50, ( #193 ) ) ;
#7 = ADVANCED_FACE ( 'NONE', ( #203 ), #197, .T. ) ;
#8 = VERTEX_POINT ( 'NONE', #162 ) ;
#9 = EDGE_CURVE ( 'NONE', #135, #301, #179, .T. ) ;
#10 = VECTOR ( 'NONE', #259, 1000.000000000000000 ) ;
#11 = VERTEX_POINT ( 'NONE', #56 ) ;
#12 = DIRECTION ( 'NONE',  ( 1.000000000000000000, 0.0000000000000000000, 0.0000000000000000000 ) ) ;
#13 = LINE ( 'NONE', #236, #176 ) ;
#14 = CC_DESIGN_SECURITY_CLASSIFICATION ( #257, ( #193 ) ) ;
#15 = PRODUCT ( 'Web Model 48863_48865', 'Web Model 48863_48865', '', ( #306 ) ) ;
#16 = EDGE_LOOP ( 'NONE', ( #248, #293, #47, #284 ) ) ;
#17 = PRODUCT_DEFINITION ( 'UNKNOWN', '', #193, #189 ) ;
#18 = LOCAL_TIME ( 12, 43, 5.000000000000000000, #102 ) ;
#19 = ORIENTED_EDGE ( 'NONE', *, *, #315, .T. ) ;
#20 = DIRECTION ( 'NONE',  ( 0.0000000000000000000, 1.000000000000000000, -0.0000000000000000000 ) ) ;
#21 = VERTEX_POINT ( 'NONE', #191 ) ;
#22 = APPLICATION_PROTOCOL_DEFINITION ( 'international standard', 'config_control_design', 1994, #42 ) ;
#23 = ORIENTED_EDGE ( 'NONE', *, *, #280, .F. ) ;
#24 = EDGE_LOOP ( 'NONE', ( #103, #119, #231, #184 ) ) ;
#25 = SECURITY_CLASSIFICATION_LEVEL ( 'unclassified' ) ;
#26 = DIRECTION ( 'NONE',  ( 0.0000000000000000000, 1.000000000000000000, -0.0000000000000000000 ) ) ;
#27 = VECTOR ( 'NONE', #26, 1000.000000000000000 ) ;
#28 = CARTESIAN_POINT ( 'NONE',  ( 6.250000000000000000, -6.250000000000000000, -6.250000000000000000 ) ) ;
#29 = VERTEX_POINT ( 'NONE', #39 ) ;
#30 = VERTEX_POINT ( 'NONE', #51 ) ;
#31 = DIRECTION ( 'NONE',  ( -0.0000000000000000000, 0.0000000000000000000, 1.000000000000000000 ) ) ;
#32 = LINE ( 'NONE', #99, #58 ) ;
#33 = ORIENTED_EDGE ( 'NONE', *, *, #35, .T. ) ;
#34 = ORIENTED_EDGE ( 'NONE', *, *, #235, .F. ) ;
#35 = EDGE_CURVE ( 'NONE', #2, #11, #132, .T. ) ;
#36 = ORIENTED_EDGE ( 'NONE', *, *, #57, .T. ) ;
#37 = COORDINATED_UNIVERSAL_TIME_OFFSET ( 5, 0, .BEHIND. ) ;
#38 = VERTEX_POINT ( 'NONE', #195 ) ;
#39 = CARTESIAN_POINT ( 'NONE',  ( -6.250000000000000000, -6.250000000000000000, 6.250000000000000000 ) ) ;
#40 = ORIENTED_EDGE ( 'NONE', *, *, #264, .F. ) ;
#41 = EDGE_LOOP ( 'NONE', ( #36, #147, #101, #66 ) ) ;
#42 = APPLICATION_CONTEXT ( 'configuration controlled 3d designs of mechanical parts and assemblies' ) ;
#43 = ORIENTED_EDGE ( 'NONE', *, *, #280, .T. ) ;
#44 =( LENGTH_UNIT ( ) NAMED_UNIT ( * ) SI_UNIT ( .MILLI., .METRE. ) );
#45 = LINE ( 'NONE', #134, #220 ) ;
#46 = CARTESIAN_POINT ( 'NONE',  ( 0.0000000000000000000, 0.0000000000000000000, 6.250000000000000000 ) ) ;
#47 = ORIENTED_EDGE ( 'NONE', *, *, #254, .F. ) ;
#48 = VECTOR ( 'NONE', #310, 1000.000000000000000 ) ;
#49 = PERSON_AND_ORGANIZATION ( #140, #297 ) ;
#50 = PERSON_AND_ORGANIZATION_ROLE ( 'creator' ) ;
#51 = CARTESIAN_POINT ( 'NONE',  ( 6.250000000000000000, -6.250000000000000000, 6.250000000000000000 ) ) ;
#52 = LINE ( 'NONE', #78, #225 ) ;
#53 = APPROVAL_STATUS ( 'not_yet_approved' ) ;
#54 = VECTOR ( 'NONE', #173, 1000.000000000000000 ) ;
#55 = FACE_OUTER_BOUND ( 'NONE', #125, .T. ) ;
#56 = CARTESIAN_POINT ( 'NONE',  ( -6.250000000000000000, 6.250000000000000000, -6.250000000000000000 ) ) ;
#57 = EDGE_CURVE ( 'NONE', #8, #96, #309, .T. ) ;
#58 = VECTOR ( 'NONE', #226, 1000.000000000000000 ) ;
#59 = MANIFOLD_SOLID_BREP ( 'Boss-Extrude3', #76 ) ;
#60 = DIRECTION ( 'NONE',  ( 0.0000000000000000000, 0.0000000000000000000, 1.000000000000000000 ) ) ;
#61 = APPROVAL ( #53, 'UNSPECIFIED' ) ;
#62 = VECTOR ( 'NONE', #127, 1000.000000000000100 ) ;
#63 = ADVANCED_FACE ( 'NONE', ( #166 ), #222, .T. ) ;
#64 = CARTESIAN_POINT ( 'NONE',  ( 0.0000000000000000000, -6.250000000000000000, 6.250000000000000000 ) ) ;
#65 = DATE_AND_TIME ( #199, #186 ) ;
#66 = ORIENTED_EDGE ( 'NONE', *, *, #108, .T. ) ;
#67 = AXIS2_PLACEMENT_3D ( 'NONE', #227, #124, #142 ) ;
#68 = PLANE ( 'NONE',  #118 ) ;
#69 = CALENDAR_DATE ( 2017, 26, 4 ) ;
#70 = CARTESIAN_POINT ( 'NONE',  ( 0.0000000000000000000, 0.0000000000000000000, 0.0000000000000000000 ) ) ;
#71 = EDGE_LOOP ( 'NONE', ( #117, #110, #43, #136 ) ) ;
#72 = LINE ( 'NONE', #272, #243 ) ;
#73 = DIRECTION ( 'NONE',  ( 0.7071067811865475700, 0.7071067811865475700, -0.0000000000000000000 ) ) ;
#74 = APPROVAL_STATUS ( 'not_yet_approved' ) ;
#75 = CC_DESIGN_PERSON_AND_ORGANIZATION_ASSIGNMENT ( #273, #251, ( #257 ) ) ;
#76 = CLOSED_SHELL ( 'NONE', ( #221, #158, #298, #63, #290 ) ) ;
#77 = DIRECTION ( 'NONE',  ( -0.0000000000000000000, -0.0000000000000000000, -1.000000000000000000 ) ) ;
#78 = CARTESIAN_POINT ( 'NONE',  ( -6.250000000000000000, 0.0000000000000000000, 6.250000000000000000 ) ) ;
#79 = PERSON_AND_ORGANIZATION_ROLE ( 'design_owner' ) ;
#80 = EDGE_CURVE ( 'NONE', #301, #96, #95, .T. ) ;
#81 = DIRECTION ( 'NONE',  ( 1.000000000000000000, 0.0000000000000000000, 0.0000000000000000000 ) ) ;
#82 = DIRECTION ( 'NONE',  ( -0.0000000000000000000, 0.0000000000000000000, 1.000000000000000000 ) ) ;
#83 = AXIS2_PLACEMENT_3D ( 'NONE', #70, #230, #198 ) ;
#84 = ORIENTED_EDGE ( 'NONE', *, *, #315, .F. ) ;
#85 = DIRECTION ( 'NONE',  ( 0.7071067811865475700, 0.7071067811865475700, -0.0000000000000000000 ) ) ;
#86 = SHAPE_DEFINITION_REPRESENTATION ( #190, #321 ) ;
#87 = AXIS2_PLACEMENT_3D ( 'NONE', #64, #104, #316 ) ;
#88 = CARTESIAN_POINT ( 'NONE',  ( 0.0000000000000000000, 0.0000000000000000000, 6.250000000000000000 ) ) ;
#89 = PERSON_AND_ORGANIZATION ( #140, #297 ) ;
#90 = VECTOR ( 'NONE', #320, 1000.000000000000000 ) ;
#91 = CARTESIAN_POINT ( 'NONE',  ( -0.0000000000000000000, 0.0000000000000000000, -6.250000000000000000 ) ) ;
#92 = APPROVAL_ROLE ( '' ) ;
#93 = ORIENTED_EDGE ( 'NONE', *, *, #114, .T. ) ;
#94 = VECTOR ( 'NONE', #285, 1000.000000000000000 ) ;
#95 = LINE ( 'NONE', #209, #282 ) ;
#96 = VERTEX_POINT ( 'NONE', #279 ) ;
#97 = DIRECTION ( 'NONE',  ( 0.7071067811865474600, -0.7071067811865474600, 0.0000000000000000000 ) ) ;
#98 = FACE_OUTER_BOUND ( 'NONE', #141, .T. ) ;
#99 = CARTESIAN_POINT ( 'NONE',  ( -6.250000000000000000, 0.0000000000000000000, -6.250000000000000000 ) ) ;
#100 = EDGE_LOOP ( 'NONE', ( #137, #164, #40 ) ) ;
#101 = ORIENTED_EDGE ( 'NONE', *, *, #9, .F. ) ;
#102 = COORDINATED_UNIVERSAL_TIME_OFFSET ( 5, 0, .BEHIND. ) ;
#103 = ORIENTED_EDGE ( 'NONE', *, *, #114, .F. ) ;
#104 = DIRECTION ( 'NONE',  ( 0.0000000000000000000, 1.000000000000000000, 0.0000000000000000000 ) ) ;
#105 = CC_DESIGN_APPROVAL ( #219, ( #257 ) ) ;
#106 = DIRECTION ( 'NONE',  ( -0.0000000000000000000, 0.0000000000000000000, 1.000000000000000000 ) ) ;
#107 = VERTEX_POINT ( 'NONE', #3 ) ;
#108 = EDGE_CURVE ( 'NONE', #135, #8, #122, .T. ) ;
#109 = LINE ( 'NONE', #262, #62 ) ;
#110 = ORIENTED_EDGE ( 'NONE', *, *, #246, .F. ) ;
#111 = VECTOR ( 'NONE', #139, 1000.000000000000100 ) ;
#112 = EDGE_CURVE ( 'NONE', #21, #180, #109, .T. ) ;
#113 = DIRECTION ( 'NONE',  ( -0.0000000000000000000, -0.0000000000000000000, -1.000000000000000000 ) ) ;
#114 = EDGE_CURVE ( 'NONE', #38, #21, #32, .T. ) ;
#115 = APPROVAL_PERSON_ORGANIZATION ( #49, #274, #92 ) ;
#116 = APPROVAL_DATE_TIME ( #1, #274 ) ;
#117 = ORIENTED_EDGE ( 'NONE', *, *, #112, .F. ) ;
#118 = AXIS2_PLACEMENT_3D ( 'NONE', #313, #85, #289 ) ;
#119 = ORIENTED_EDGE ( 'NONE', *, *, #278, .F. ) ;
#120 = CARTESIAN_POINT ( 'NONE',  ( 6.250000000000000000, 0.0000000000000000000, 6.250000000000000000 ) ) ;
#121 =( NAMED_UNIT ( * ) SI_UNIT ( $, .STERADIAN. ) SOLID_ANGLE_UNIT ( ) );
#122 = LINE ( 'NONE', #302, #194 ) ;
#123 = PLANE ( 'NONE',  #185 ) ;
#124 = DIRECTION ( 'NONE',  ( 0.0000000000000000000, 1.000000000000000000, 0.0000000000000000000 ) ) ;
#125 = EDGE_LOOP ( 'NONE', ( #19, #223, #34, #33 ) ) ;
#126 = EDGE_CURVE ( 'NONE', #30, #180, #307, .T. ) ;
#127 = DIRECTION ( 'NONE',  ( 0.7071067811865474600, -0.7071067811865474600, 0.0000000000000000000 ) ) ;
#128 = EDGE_CURVE ( 'NONE', #38, #180, #256, .T. ) ;
#129 = CARTESIAN_POINT ( 'NONE',  ( 6.250000000000000000, 0.0000000000000000000, -6.250000000000000000 ) ) ;
#130 = CARTESIAN_POINT ( 'NONE',  ( -6.250000000000000000, 6.250000000000000000, 6.250000000000000000 ) ) ;
#131 = DIRECTION ( 'NONE',  ( 1.000000000000000000, 0.0000000000000000000, 0.0000000000000000000 ) ) ;
#132 = LINE ( 'NONE', #258, #10 ) ;
#133 = PRODUCT_RELATED_PRODUCT_CATEGORY ( 'detail', '', ( #15 ) ) ;
#134 = CARTESIAN_POINT ( 'NONE',  ( -6.250000000000000000, -6.250000000000000000, 6.250000000000000000 ) ) ;
#135 = VERTEX_POINT ( 'NONE', #149 ) ;
#136 = ORIENTED_EDGE ( 'NONE', *, *, #126, .T. ) ;
#137 = ORIENTED_EDGE ( 'NONE', *, *, #235, .T. ) ;
#138 = ORIENTED_EDGE ( 'NONE', *, *, #286, .F. ) ;
#139 = DIRECTION ( 'NONE',  ( 0.7071067811865474600, -0.7071067811865474600, 0.0000000000000000000 ) ) ;
#140 = PERSON ( 'UNSPECIFIED', 'UNSPECIFIED', 'UNSPECIFIED', ('UNSPECIFIED'), ('UNSPECIFIED'), ('UNSPECIFIED') ) ;
#141 = EDGE_LOOP ( 'NONE', ( #84, #157, #276 ) ) ;
#142 = DIRECTION ( 'NONE',  ( 0.0000000000000000000, -0.0000000000000000000, 1.000000000000000000 ) ) ;
#143 = DIRECTION ( 'NONE',  ( -0.7071067811865474600, 0.7071067811865474600, 0.0000000000000000000 ) ) ;
#144 = CALENDAR_DATE ( 2017, 26, 4 ) ;
#145 = DIRECTION ( 'NONE',  ( 1.000000000000000000, 0.0000000000000000000, 0.0000000000000000000 ) ) ;
#146 = ORIENTED_EDGE ( 'NONE', *, *, #80, .T. ) ;
#147 = ORIENTED_EDGE ( 'NONE', *, *, #80, .F. ) ;
#148 = PLANE ( 'NONE',  #67 ) ;
#149 = CARTESIAN_POINT ( 'NONE',  ( 6.250000000000000000, -6.250000000000000000, 6.250000000000000000 ) ) ;
#150 = LOCAL_TIME ( 12, 43, 5.000000000000000000, #160 ) ;
#151 = DIRECTION ( 'NONE',  ( 0.0000000000000000000, 0.0000000000000000000, 1.000000000000000000 ) ) ;
#152 = ADVANCED_FACE ( 'NONE', ( #228 ), #155, .T. ) ;
#153 = PLANE ( 'NONE',  #294 ) ;
#154 = COORDINATED_UNIVERSAL_TIME_OFFSET ( 5, 0, .BEHIND. ) ;
#155 = PLANE ( 'NONE',  #224 ) ;
#156 = VECTOR ( 'NONE', #172, 1000.000000000000100 ) ;
#157 = ORIENTED_EDGE ( 'NONE', *, *, #269, .T. ) ;
#158 = ADVANCED_FACE ( 'NONE', ( #170 ), #287, .F. ) ;
#159 = CLOSED_SHELL ( 'NONE', ( #152, #299, #215, #7, #263 ) ) ;
#160 = COORDINATED_UNIVERSAL_TIME_OFFSET ( 5, 0, .BEHIND. ) ;
#161 = CC_DESIGN_APPROVAL ( #61, ( #193 ) ) ;
#162 = CARTESIAN_POINT ( 'NONE',  ( 6.250000000000000000, -6.250000000000000000, -6.250000000000000000 ) ) ;
#163 = FACE_OUTER_BOUND ( 'NONE', #247, .T. ) ;
#164 = ORIENTED_EDGE ( 'NONE', *, *, #9, .T. ) ;
#165 = DIRECTION ( 'NONE',  ( -0.0000000000000000000, -0.0000000000000000000, -1.000000000000000000 ) ) ;
#166 = FACE_OUTER_BOUND ( 'NONE', #100, .T. ) ;
#167 = CARTESIAN_POINT ( 'NONE',  ( 0.0000000000000000000, 0.0000000000000000000, -6.250000000000000000 ) ) ;
#168 = EDGE_LOOP ( 'NONE', ( #138, #271, #23 ) ) ;
#169 = AXIS2_PLACEMENT_3D ( 'NONE', #120, #238, #151 ) ;
#170 = FACE_OUTER_BOUND ( 'NONE', #41, .T. ) ;
#171 = CARTESIAN_POINT ( 'NONE',  ( 6.250000000000000000, 6.250000000000000000, 6.250000000000000000 ) ) ;
#172 = DIRECTION ( 'NONE',  ( 0.7071067811865474600, -0.7071067811865474600, 0.0000000000000000000 ) ) ;
#173 = DIRECTION ( 'NONE',  ( 1.000000000000000000, 0.0000000000000000000, 0.0000000000000000000 ) ) ;
#174 = FACE_OUTER_BOUND ( 'NONE', #16, .T. ) ;
#175 = UNCERTAINTY_MEASURE_WITH_UNIT (LENGTH_MEASURE( 1.000000000000000100E-005 ), #44, 'distance_accuracy_value', 'NONE');
#176 = VECTOR ( 'NONE', #77, 1000.000000000000000 ) ;
#177 = MANIFOLD_SOLID_BREP ( 'Boss-Extrude2', #159 ) ;
#178 = PERSON_AND_ORGANIZATION_ROLE ( 'creator' ) ;
#179 = LINE ( 'NONE', #216, #27 ) ;
#180 = VERTEX_POINT ( 'NONE', #28 ) ;
#181 = COORDINATED_UNIVERSAL_TIME_OFFSET ( 5, 0, .BEHIND. ) ;
#182 = APPROVAL_DATE_TIME ( #312, #219 ) ;
#183 = DATE_TIME_ROLE ( 'creation_date' ) ;
#184 = ORIENTED_EDGE ( 'NONE', *, *, #246, .T. ) ;
#185 = AXIS2_PLACEMENT_3D ( 'NONE', #46, #73, #143 ) ;
#186 = LOCAL_TIME ( 12, 43, 5.000000000000000000, #154 ) ;
#187 = CARTESIAN_POINT ( 'NONE',  ( -0.0000000000000000000, 6.250000000000000000, -6.250000000000000000 ) ) ;
#188 = CARTESIAN_POINT ( 'NONE',  ( 0.0000000000000000000, -6.250000000000000000, -6.250000000000000000 ) ) ;
#189 = DESIGN_CONTEXT ( 'detailed design', #42, 'design' ) ;
#190 = PRODUCT_DEFINITION_SHAPE ( 'NONE', 'NONE',  #17 ) ;
#191 = CARTESIAN_POINT ( 'NONE',  ( -6.250000000000000000, 6.250000000000000000, -6.250000000000000000 ) ) ;
#192 = PERSON_AND_ORGANIZATION_ROLE ( 'design_supplier' ) ;
#193 = PRODUCT_DEFINITION_FORMATION_WITH_SPECIFIED_SOURCE ( 'ANY', '', #15, .NOT_KNOWN. ) ;
#194 = VECTOR ( 'NONE', #283, 1000.000000000000000 ) ;
#195 = CARTESIAN_POINT ( 'NONE',  ( -6.250000000000000000, -6.250000000000000000, -6.250000000000000000 ) ) ;
#196 = DATE_AND_TIME ( #218, #150 ) ;
#197 = PLANE ( 'NONE',  #217 ) ;
#198 = DIRECTION ( 'NONE',  ( 1.000000000000000000, 0.0000000000000000000, 0.0000000000000000000 ) ) ;
#199 = CALENDAR_DATE ( 2017, 26, 4 ) ;
#200 = ORIENTED_EDGE ( 'NONE', *, *, #269, .F. ) ;
#201 = APPLICATION_CONTEXT ( 'configuration controlled 3d designs of mechanical parts and assemblies' ) ;
#202 = DATE_AND_TIME ( #69, #18 ) ;
#203 = FACE_OUTER_BOUND ( 'NONE', #168, .T. ) ;
#204 = ORIENTED_EDGE ( 'NONE', *, *, #112, .T. ) ;
#205 = DIRECTION ( 'NONE',  ( -1.000000000000000000, 0.0000000000000000000, 0.0000000000000000000 ) ) ;
#206 = CARTESIAN_POINT ( 'NONE',  ( 6.250000000000000000, -6.250000000000000000, 6.250000000000000000 ) ) ;
#207 = PERSON_AND_ORGANIZATION ( #140, #297 ) ;
#208 = AXIS2_PLACEMENT_3D ( 'NONE', #311, #5, #81 ) ;
#209 = CARTESIAN_POINT ( 'NONE',  ( 6.250000000000000000, 6.250000000000000000, 6.250000000000000000 ) ) ;
#210 = FACE_OUTER_BOUND ( 'NONE', #71, .T. ) ;
#211 = CARTESIAN_POINT ( 'NONE',  ( 0.0000000000000000000, 6.250000000000000000, 6.250000000000000000 ) ) ;
#212 = PLANE ( 'NONE',  #208 ) ;
#213 = PERSON_AND_ORGANIZATION ( #140, #297 ) ;
#214 = LOCAL_TIME ( 12, 43, 5.000000000000000000, #37 ) ;
#215 = ADVANCED_FACE ( 'NONE', ( #210 ), #68, .T. ) ;
#216 = CARTESIAN_POINT ( 'NONE',  ( 6.250000000000000000, 0.0000000000000000000, 6.250000000000000000 ) ) ;
#217 = AXIS2_PLACEMENT_3D ( 'NONE', #232, #106, #131 ) ;
#218 = CALENDAR_DATE ( 2017, 26, 4 ) ;
#219 = APPROVAL ( #74, 'UNSPECIFIED' ) ;
#220 = VECTOR ( 'NONE', #113, 1000.000000000000000 ) ;
#221 = ADVANCED_FACE ( 'NONE', ( #55 ), #123, .F. ) ;
#222 = PLANE ( 'NONE',  #240 ) ;
#223 = ORIENTED_EDGE ( 'NONE', *, *, #108, .F. ) ;
#224 = AXIS2_PLACEMENT_3D ( 'NONE', #267, #205, #60 ) ;
#225 = VECTOR ( 'NONE', #20, 1000.000000000000000 ) ;
#226 = DIRECTION ( 'NONE',  ( 0.0000000000000000000, 1.000000000000000000, -0.0000000000000000000 ) ) ;
#227 = CARTESIAN_POINT ( 'NONE',  ( 0.0000000000000000000, 6.250000000000000000, 6.250000000000000000 ) ) ;
#228 = FACE_OUTER_BOUND ( 'NONE', #24, .T. ) ;
#229 =( NAMED_UNIT ( * ) PLANE_ANGLE_UNIT ( ) SI_UNIT ( $, .RADIAN. ) );
#230 = DIRECTION ( 'NONE',  ( 0.0000000000000000000, 0.0000000000000000000, 1.000000000000000000 ) ) ;
#231 = ORIENTED_EDGE ( 'NONE', *, *, #286, .T. ) ;
#232 = CARTESIAN_POINT ( 'NONE',  ( 0.0000000000000000000, 0.0000000000000000000, 6.250000000000000000 ) ) ;
#233 = CC_DESIGN_APPROVAL ( #274, ( #17 ) ) ;
#234 = ORIENTED_EDGE ( 'NONE', *, *, #264, .T. ) ;
#235 = EDGE_CURVE ( 'NONE', #2, #135, #72, .T. ) ;
#236 = CARTESIAN_POINT ( 'NONE',  ( -6.250000000000000000, 6.250000000000000000, 6.250000000000000000 ) ) ;
#237 = PERSON_AND_ORGANIZATION ( #140, #297 ) ;
#238 = DIRECTION ( 'NONE',  ( -1.000000000000000000, 0.0000000000000000000, 0.0000000000000000000 ) ) ;
#239 = ORIENTED_EDGE ( 'NONE', *, *, #128, .F. ) ;
#240 = AXIS2_PLACEMENT_3D ( 'NONE', #88, #31, #12 ) ;
#241 = APPROVAL_PERSON_ORGANIZATION ( #213, #61, #244 ) ;
#242 = PERSON_AND_ORGANIZATION ( #140, #297 ) ;
#243 = VECTOR ( 'NONE', #97, 1000.000000000000100 ) ;
#244 = APPROVAL_ROLE ( '' ) ;
#245 = CARTESIAN_POINT ( 'NONE',  ( 0.0000000000000000000, 0.0000000000000000000, 6.250000000000000000 ) ) ;
#246 = EDGE_CURVE ( 'NONE', #107, #21, #13, .T. ) ;
#247 = EDGE_LOOP ( 'NONE', ( #93, #204, #239 ) ) ;
#248 = ORIENTED_EDGE ( 'NONE', *, *, #128, .T. ) ;
#249 = LINE ( 'NONE', #187, #90 ) ;
#250 = ORIENTED_EDGE ( 'NONE', *, *, #35, .F. ) ;
#251 = PERSON_AND_ORGANIZATION_ROLE ( 'classification_officer' ) ;
#252 = PLANE ( 'NONE',  #87 ) ;
#253 = APPROVAL_DATE_TIME ( #202, #61 ) ;
#254 = EDGE_CURVE ( 'NONE', #29, #30, #303, .T. ) ;
#255 = APPROVAL_STATUS ( 'not_yet_approved' ) ;
#256 = LINE ( 'NONE', #188, #304 ) ;
#257 = SECURITY_CLASSIFICATION ( '', '', #25 ) ;
#258 = CARTESIAN_POINT ( 'NONE',  ( -6.250000000000000000, 6.250000000000000000, 6.250000000000000000 ) ) ;
#259 = DIRECTION ( 'NONE',  ( -0.0000000000000000000, -0.0000000000000000000, -1.000000000000000000 ) ) ;
#260 = APPROVAL_ROLE ( '' ) ;
#261 = LINE ( 'NONE', #245, #111 ) ;
#262 = CARTESIAN_POINT ( 'NONE',  ( -0.0000000000000000000, 0.0000000000000000000, -6.250000000000000000 ) ) ;
#263 = ADVANCED_FACE ( 'NONE', ( #163 ), #212, .F. ) ;
#264 = EDGE_CURVE ( 'NONE', #2, #301, #308, .T. ) ;
#265 = CC_DESIGN_DATE_AND_TIME_ASSIGNMENT ( #196, #300, ( #257 ) ) ;
#266 = VECTOR ( 'NONE', #165, 1000.000000000000000 ) ;
#267 = CARTESIAN_POINT ( 'NONE',  ( -6.250000000000000000, 0.0000000000000000000, 6.250000000000000000 ) ) ;
#268 = LINE ( 'NONE', #91, #156 ) ;
#269 = EDGE_CURVE ( 'NONE', #11, #96, #249, .T. ) ;
#270 = EDGE_LOOP ( 'NONE', ( #200, #250, #234, #146 ) ) ;
#271 = ORIENTED_EDGE ( 'NONE', *, *, #254, .T. ) ;
#272 = CARTESIAN_POINT ( 'NONE',  ( 0.0000000000000000000, 0.0000000000000000000, 6.250000000000000000 ) ) ;
#273 = PERSON_AND_ORGANIZATION ( #140, #297 ) ;
#274 = APPROVAL ( #255, 'UNSPECIFIED' ) ;
#275 = APPROVAL_PERSON_ORGANIZATION ( #89, #219, #260 ) ;
#276 = ORIENTED_EDGE ( 'NONE', *, *, #57, .F. ) ;
#277 = APPLICATION_PROTOCOL_DEFINITION ( 'international standard', 'config_control_design', 1994, #201 ) ;
#278 = EDGE_CURVE ( 'NONE', #29, #38, #45, .T. ) ;
#279 = CARTESIAN_POINT ( 'NONE',  ( 6.250000000000000000, 6.250000000000000000, -6.250000000000000000 ) ) ;
#280 = EDGE_CURVE ( 'NONE', #107, #30, #261, .T. ) ;
#281 = DIRECTION ( 'NONE',  ( -0.0000000000000000000, -0.0000000000000000000, -1.000000000000000000 ) ) ;
#282 = VECTOR ( 'NONE', #281, 1000.000000000000000 ) ;
#283 = DIRECTION ( 'NONE',  ( -0.0000000000000000000, -0.0000000000000000000, -1.000000000000000000 ) ) ;
#284 = ORIENTED_EDGE ( 'NONE', *, *, #278, .T. ) ;
#285 = DIRECTION ( 'NONE',  ( 1.000000000000000000, 0.0000000000000000000, 0.0000000000000000000 ) ) ;
#286 = EDGE_CURVE ( 'NONE', #29, #107, #52, .T. ) ;
#287 = PLANE ( 'NONE',  #169 ) ;
#288 = FACE_OUTER_BOUND ( 'NONE', #270, .T. ) ;
#289 = DIRECTION ( 'NONE',  ( -0.7071067811865474600, 0.7071067811865474600, 0.0000000000000000000 ) ) ;
#290 = ADVANCED_FACE ( 'NONE', ( #98 ), #153, .F. ) ;
#291 = CC_DESIGN_PERSON_AND_ORGANIZATION_ASSIGNMENT ( #237, #178, ( #17 ) ) ;
#292 = PERSON_AND_ORGANIZATION ( #140, #297 ) ;
#293 = ORIENTED_EDGE ( 'NONE', *, *, #126, .F. ) ;
#294 = AXIS2_PLACEMENT_3D ( 'NONE', #167, #82, #317 ) ;
#295 = CC_DESIGN_DATE_AND_TIME_ASSIGNMENT ( #65, #183, ( #17 ) ) ;
#296 = CALENDAR_DATE ( 2017, 26, 4 ) ;
#297 = ORGANIZATION ( 'UNSPECIFIED', 'UNSPECIFIED', '' ) ;
#298 = ADVANCED_FACE ( 'NONE', ( #288 ), #148, .T. ) ;
#299 = ADVANCED_FACE ( 'NONE', ( #174 ), #252, .F. ) ;
#300 = DATE_TIME_ROLE ( 'classification_date' ) ;
#301 = VERTEX_POINT ( 'NONE', #171 ) ;
#302 = CARTESIAN_POINT ( 'NONE',  ( 6.250000000000000000, -6.250000000000000000, 6.250000000000000000 ) ) ;
#303 = LINE ( 'NONE', #318, #94 ) ;
#304 = VECTOR ( 'NONE', #145, 1000.000000000000000 ) ;
#305 = CC_DESIGN_PERSON_AND_ORGANIZATION_ASSIGNMENT ( #242, #79, ( #15 ) ) ;
#306 = MECHANICAL_CONTEXT ( 'NONE', #201, 'mechanical' ) ;
#307 = LINE ( 'NONE', #206, #266 ) ;
#308 = LINE ( 'NONE', #211, #54 ) ;
#309 = LINE ( 'NONE', #129, #48 ) ;
#310 = DIRECTION ( 'NONE',  ( 0.0000000000000000000, 1.000000000000000000, -0.0000000000000000000 ) ) ;
#311 = CARTESIAN_POINT ( 'NONE',  ( 0.0000000000000000000, 0.0000000000000000000, -6.250000000000000000 ) ) ;
#312 = DATE_AND_TIME ( #144, #214 ) ;
#313 = CARTESIAN_POINT ( 'NONE',  ( 0.0000000000000000000, 0.0000000000000000000, 6.250000000000000000 ) ) ;
#314 = LOCAL_TIME ( 12, 43, 5.000000000000000000, #181 ) ;
#315 = EDGE_CURVE ( 'NONE', #11, #8, #268, .T. ) ;
#316 = DIRECTION ( 'NONE',  ( 0.0000000000000000000, -0.0000000000000000000, 1.000000000000000000 ) ) ;
#317 = DIRECTION ( 'NONE',  ( 1.000000000000000000, 0.0000000000000000000, 0.0000000000000000000 ) ) ;
#318 = CARTESIAN_POINT ( 'NONE',  ( 0.0000000000000000000, -6.250000000000000000, 6.250000000000000000 ) ) ;
#319 = CC_DESIGN_PERSON_AND_ORGANIZATION_ASSIGNMENT ( #207, #192, ( #193 ) ) ;
#320 = DIRECTION ( 'NONE',  ( 1.000000000000000000, 0.0000000000000000000, 0.0000000000000000000 ) ) ;
#321 = ADVANCED_BREP_SHAPE_REPRESENTATION ( 'Web Model 48863_48865', ( #177, #59, #83 ), #4 ) ;
ENDSEC;
END-ISO-10303-21;
