ISO-10303-21;
HEADER;
FILE_DESCRIPTION (( 'STEP AP203' ),
    '1' );
FILE_NAME ('Web Model 19837_22696.step',
    '2022-05-24T16:13:06',
    ( 'WC' ),
    ( 'Windows Central' ),
    'SwSTEP 2.0',
    'SolidWorks 2021',
    '' );
FILE_SCHEMA (( 'CONFIG_CONTROL_DESIGN' ));
ENDSEC;

DATA;
#1 = CALENDAR_DATE ( 2022, 24, 5 ) ;
#2 = APPROVAL_ROLE ( '' ) ;
#3 = PERSON_AND_ORGANIZATION ( #99, #100 ) ;
#4 = CARTESIAN_POINT ( 'NONE',  ( 0.000000000000000000, 0.000000000000000000, 0.000000000000000000 ) ) ;
#5 = APPLICATION_CONTEXT ( 'configuration controlled 3d designs of mechanical parts and assemblies' ) ;
#6 =( GEOMETRIC_REPRESENTATION_CONTEXT ( 3 ) GLOBAL_UNCERTAINTY_ASSIGNED_CONTEXT ( ( #117 ) ) GLOBAL_UNIT_ASSIGNED_CONTEXT ( ( #16, #92, #77 ) ) REPRESENTATION_CONTEXT ( 'NONE', 'WORKASPACE' ) );
#7 = CARTESIAN_POINT ( 'NONE',  ( 0.000000000000000000, 0.000000000000000000, 0.000000000000000000 ) ) ;
#8 = DIRECTION ( 'NONE',  ( 1.000000000000000000, 0.000000000000000000, -0.000000000000000000 ) ) ;
#9 = CC_DESIGN_DATE_AND_TIME_ASSIGNMENT ( #78, #152, ( #154 ) ) ;
#10 = DIRECTION ( 'NONE',  ( 1.000000000000000000, 0.000000000000000000, 0.000000000000000000 ) ) ;
#11 = DIRECTION ( 'NONE',  ( 0.000000000000000000, 0.000000000000000000, 1.000000000000000000 ) ) ;
#12 = APPROVAL_PERSON_ORGANIZATION ( #94, #149, #79 ) ;
#13 = ORIENTED_EDGE ( 'NONE', *, *, #56, .F. ) ;
#14 = APPROVAL ( #137, 'UNSPECIFIED' ) ;
#15 = APPLICATION_CONTEXT ( 'configuration controlled 3d designs of mechanical parts and assemblies' ) ;
#16 =( LENGTH_UNIT ( ) NAMED_UNIT ( * ) SI_UNIT ( .MILLI., .METRE. ) );
#17 = CALENDAR_DATE ( 2022, 24, 5 ) ;
#18 = CARTESIAN_POINT ( 'NONE',  ( 0.000000000000000000, 0.000000000000000000, 0.000000000000000000 ) ) ;
#19 = APPROVAL_STATUS ( 'not_yet_approved' ) ;
#20 = COORDINATED_UNIVERSAL_TIME_OFFSET ( 5, 0, .BEHIND. ) ;
#21 = ADVANCED_FACE ( 'NONE', ( #174 ), #55, .T. ) ;
#22 = VERTEX_POINT ( 'NONE', #106 ) ;
#23 = FACE_OUTER_BOUND ( 'NONE', #70, .T. ) ;
#24 = EDGE_LOOP ( 'NONE', ( #13, #140, #81, #110 ) ) ;
#25 = LOCAL_TIME ( 12, 13, 6.000000000000000000, #80 ) ;
#26 = EDGE_CURVE ( 'NONE', #95, #22, #40, .T. ) ;
#27 = CC_DESIGN_PERSON_AND_ORGANIZATION_ASSIGNMENT ( #61, #166, ( #154 ) ) ;
#28 = APPROVAL_PERSON_ORGANIZATION ( #51, #59, #33 ) ;
#29 = DIRECTION ( 'NONE',  ( 0.000000000000000000, 0.000000000000000000, 1.000000000000000000 ) ) ;
#30 = APPROVAL_DATE_TIME ( #45, #59 ) ;
#31 = COORDINATED_UNIVERSAL_TIME_OFFSET ( 5, 0, .BEHIND. ) ;
#32 = CALENDAR_DATE ( 2022, 24, 5 ) ;
#33 = APPROVAL_ROLE ( '' ) ;
#34 = DIRECTION ( 'NONE',  ( 1.000000000000000000, 0.000000000000000000, 0.000000000000000000 ) ) ;
#35 = CARTESIAN_POINT ( 'NONE',  ( 0.000000000000000000, 0.000000000000000000, 0.000000000000000000 ) ) ;
#36 = PERSON_AND_ORGANIZATION_ROLE ( 'creator' ) ;
#37 = FACE_OUTER_BOUND ( 'NONE', #141, .T. ) ;
#38 = DIRECTION ( 'NONE',  ( 1.000000000000000000, 0.000000000000000000, 0.000000000000000000 ) ) ;
#39 = ORIENTED_EDGE ( 'NONE', *, *, #58, .T. ) ;
#40 = CIRCLE ( 'NONE', #134, 20.00000000000000000 ) ;
#41 = PRODUCT_DEFINITION ( 'UNKNOWN', '', #50, #129 ) ;
#42 = CC_DESIGN_APPROVAL ( #14, ( #154 ) ) ;
#43 = LOCAL_TIME ( 12, 13, 6.000000000000000000, #91 ) ;
#44 = CC_DESIGN_PERSON_AND_ORGANIZATION_ASSIGNMENT ( #165, #153, ( #162 ) ) ;
#45 = DATE_AND_TIME ( #1, #71 ) ;
#46 = DIRECTION ( 'NONE',  ( 0.000000000000000000, 0.000000000000000000, 1.000000000000000000 ) ) ;
#47 = CC_DESIGN_PERSON_AND_ORGANIZATION_ASSIGNMENT ( #3, #103, ( #50 ) ) ;
#48 = DATE_TIME_ROLE ( 'creation_date' ) ;
#49 = COORDINATED_UNIVERSAL_TIME_OFFSET ( 5, 0, .BEHIND. ) ;
#50 = PRODUCT_DEFINITION_FORMATION_WITH_SPECIFIED_SOURCE ( 'ANY', '', #162, .NOT_KNOWN. ) ;
#51 = PERSON_AND_ORGANIZATION ( #99, #100 ) ;
#52 = CARTESIAN_POINT ( 'NONE',  ( 20.00000000000000000, 2.449293598294706513E-15, 0.000000000000000000 ) ) ;
#53 = EDGE_LOOP ( 'NONE', ( #54, #98, #159, #133 ) ) ;
#54 = ORIENTED_EDGE ( 'NONE', *, *, #105, .F. ) ;
#55 = CYLINDRICAL_SURFACE ( 'NONE', #65, 20.00000000000000000 ) ;
#56 = EDGE_CURVE ( 'NONE', #143, #95, #84, .T. ) ;
#57 = CC_DESIGN_PERSON_AND_ORGANIZATION_ASSIGNMENT ( #123, #36, ( #41 ) ) ;
#58 = EDGE_CURVE ( 'NONE', #111, #143, #126, .T. ) ;
#59 = APPROVAL ( #150, 'UNSPECIFIED' ) ;
#60 = CARTESIAN_POINT ( 'NONE',  ( 0.000000000000000000, 0.000000000000000000, 1.000000000000000000 ) ) ;
#61 = PERSON_AND_ORGANIZATION ( #99, #100 ) ;
#62 = PERSON_AND_ORGANIZATION_ROLE ( 'design_supplier' ) ;
#63 = AXIS2_PLACEMENT_3D ( 'NONE', #7, #115, #8 ) ;
#64 = DIRECTION ( 'NONE',  ( -0.000000000000000000, -0.000000000000000000, -1.000000000000000000 ) ) ;
#65 = AXIS2_PLACEMENT_3D ( 'NONE', #118, #121, #112 ) ;
#66 = MANIFOLD_SOLID_BREP ( 'Boss-Extrude1', #72 ) ;
#67 = CARTESIAN_POINT ( 'NONE',  ( 0.000000000000000000, 0.000000000000000000, 1.000000000000000000 ) ) ;
#68 = LINE ( 'NONE', #172, #147 ) ;
#69 = CARTESIAN_POINT ( 'NONE',  ( 20.00000000000000000, 2.449293598294706513E-15, 1.000000000000000000 ) ) ;
#70 = EDGE_LOOP ( 'NONE', ( #39, #130 ) ) ;
#71 = LOCAL_TIME ( 12, 13, 6.000000000000000000, #20 ) ;
#72 = CLOSED_SHELL ( 'NONE', ( #21, #148, #135, #73 ) ) ;
#73 = ADVANCED_FACE ( 'NONE', ( #37 ), #128, .F. ) ;
#74 = APPROVAL_DATE_TIME ( #102, #14 ) ;
#75 = DATE_AND_TIME ( #32, #43 ) ;
#76 = CC_DESIGN_SECURITY_CLASSIFICATION ( #154, ( #50 ) ) ;
#77 =( NAMED_UNIT ( * ) SI_UNIT ( $, .STERADIAN. ) SOLID_ANGLE_UNIT ( ) );
#78 = DATE_AND_TIME ( #104, #88 ) ;
#79 = APPROVAL_ROLE ( '' ) ;
#80 = COORDINATED_UNIVERSAL_TIME_OFFSET ( 5, 0, .BEHIND. ) ;
#81 = ORIENTED_EDGE ( 'NONE', *, *, #85, .T. ) ;
#82 = AXIS2_PLACEMENT_3D ( 'NONE', #60, #114, #101 ) ;
#83 = CIRCLE ( 'NONE', #108, 20.00000000000000000 ) ;
#84 = LINE ( 'NONE', #107, #138 ) ;
#85 = EDGE_CURVE ( 'NONE', #111, #22, #68, .T. ) ;
#86 = CARTESIAN_POINT ( 'NONE',  ( 0.000000000000000000, 0.000000000000000000, 1.000000000000000000 ) ) ;
#87 = ORIENTED_EDGE ( 'NONE', *, *, #171, .F. ) ;
#88 = LOCAL_TIME ( 12, 13, 6.000000000000000000, #49 ) ;
#89 = PRODUCT_DEFINITION_SHAPE ( 'NONE', 'NONE',  #41 ) ;
#90 = PERSON_AND_ORGANIZATION ( #99, #100 ) ;
#91 = COORDINATED_UNIVERSAL_TIME_OFFSET ( 5, 0, .BEHIND. ) ;
#92 =( NAMED_UNIT ( * ) PLANE_ANGLE_UNIT ( ) SI_UNIT ( $, .RADIAN. ) );
#93 = LOCAL_TIME ( 12, 13, 6.000000000000000000, #31 ) ;
#94 = PERSON_AND_ORGANIZATION ( #99, #100 ) ;
#95 = VERTEX_POINT ( 'NONE', #52 ) ;
#96 = CARTESIAN_POINT ( 'NONE',  ( -20.00000000000000000, 0.000000000000000000, 1.000000000000000000 ) ) ;
#97 = PLANE ( 'NONE',  #156 ) ;
#98 = ORIENTED_EDGE ( 'NONE', *, *, #56, .T. ) ;
#99 = PERSON ( 'UNSPECIFIED', 'UNSPECIFIED', 'UNSPECIFIED', ('UNSPECIFIED'), ('UNSPECIFIED'), ('UNSPECIFIED') ) ;
#100 = ORGANIZATION ( 'UNSPECIFIED', 'UNSPECIFIED', '' ) ;
#101 = DIRECTION ( 'NONE',  ( -1.000000000000000000, 0.000000000000000000, 0.000000000000000000 ) ) ;
#102 = DATE_AND_TIME ( #17, #93 ) ;
#103 = PERSON_AND_ORGANIZATION_ROLE ( 'creator' ) ;
#104 = CALENDAR_DATE ( 2022, 24, 5 ) ;
#105 = EDGE_CURVE ( 'NONE', #143, #111, #83, .T. ) ;
#106 = CARTESIAN_POINT ( 'NONE',  ( -20.00000000000000000, 0.000000000000000000, 0.000000000000000000 ) ) ;
#107 = CARTESIAN_POINT ( 'NONE',  ( 20.00000000000000000, 2.449293598294706513E-15, 1.000000000000000000 ) ) ;
#108 = AXIS2_PLACEMENT_3D ( 'NONE', #67, #11, #38 ) ;
#109 = AXIS2_PLACEMENT_3D ( 'NONE', #4, #46, #34 ) ;
#110 = ORIENTED_EDGE ( 'NONE', *, *, #171, .T. ) ;
#111 = VERTEX_POINT ( 'NONE', #96 ) ;
#112 = DIRECTION ( 'NONE',  ( -1.000000000000000000, 0.000000000000000000, 0.000000000000000000 ) ) ;
#113 = CC_DESIGN_PERSON_AND_ORGANIZATION_ASSIGNMENT ( #164, #62, ( #50 ) ) ;
#114 = DIRECTION ( 'NONE',  ( -0.000000000000000000, -0.000000000000000000, -1.000000000000000000 ) ) ;
#115 = DIRECTION ( 'NONE',  ( 0.000000000000000000, 0.000000000000000000, 1.000000000000000000 ) ) ;
#116 = PRODUCT_RELATED_PRODUCT_CATEGORY ( 'detail', '', ( #162 ) ) ;
#117 = UNCERTAINTY_MEASURE_WITH_UNIT (LENGTH_MEASURE( 1.000000000000000082E-05 ), #16, 'distance_accuracy_value', 'NONE');
#118 = CARTESIAN_POINT ( 'NONE',  ( 0.000000000000000000, 0.000000000000000000, 1.000000000000000000 ) ) ;
#119 = DIRECTION ( 'NONE',  ( 0.000000000000000000, 0.000000000000000000, 1.000000000000000000 ) ) ;
#120 = FACE_OUTER_BOUND ( 'NONE', #24, .T. ) ;
#121 = DIRECTION ( 'NONE',  ( -0.000000000000000000, -0.000000000000000000, -1.000000000000000000 ) ) ;
#122 = SHAPE_DEFINITION_REPRESENTATION ( #89, #160 ) ;
#123 = PERSON_AND_ORGANIZATION ( #99, #100 ) ;
#124 = SECURITY_CLASSIFICATION_LEVEL ( 'unclassified' ) ;
#125 = DIRECTION ( 'NONE',  ( 0.000000000000000000, 0.000000000000000000, 1.000000000000000000 ) ) ;
#126 = CIRCLE ( 'NONE', #144, 20.00000000000000000 ) ;
#127 = CALENDAR_DATE ( 2022, 24, 5 ) ;
#128 = PLANE ( 'NONE',  #63 ) ;
#129 = DESIGN_CONTEXT ( 'detailed design', #15, 'design' ) ;
#130 = ORIENTED_EDGE ( 'NONE', *, *, #105, .T. ) ;
#131 = DIRECTION ( 'NONE',  ( 1.000000000000000000, 0.000000000000000000, -0.000000000000000000 ) ) ;
#132 = CC_DESIGN_APPROVAL ( #59, ( #50 ) ) ;
#133 = ORIENTED_EDGE ( 'NONE', *, *, #85, .F. ) ;
#134 = AXIS2_PLACEMENT_3D ( 'NONE', #35, #125, #10 ) ;
#135 = ADVANCED_FACE ( 'NONE', ( #23 ), #97, .T. ) ;
#136 = MECHANICAL_CONTEXT ( 'NONE', #5, 'mechanical' ) ;
#137 = APPROVAL_STATUS ( 'not_yet_approved' ) ;
#138 = VECTOR ( 'NONE', #64, 1000.000000000000000 ) ;
#139 = APPROVAL_DATE_TIME ( #75, #149 ) ;
#140 = ORIENTED_EDGE ( 'NONE', *, *, #58, .F. ) ;
#141 = EDGE_LOOP ( 'NONE', ( #87, #142 ) ) ;
#142 = ORIENTED_EDGE ( 'NONE', *, *, #26, .F. ) ;
#143 = VERTEX_POINT ( 'NONE', #69 ) ;
#144 = AXIS2_PLACEMENT_3D ( 'NONE', #157, #155, #158 ) ;
#145 = CC_DESIGN_DATE_AND_TIME_ASSIGNMENT ( #169, #48, ( #41 ) ) ;
#146 = CIRCLE ( 'NONE', #175, 20.00000000000000000 ) ;
#147 = VECTOR ( 'NONE', #170, 1000.000000000000000 ) ;
#148 = ADVANCED_FACE ( 'NONE', ( #120 ), #173, .T. ) ;
#149 = APPROVAL ( #19, 'UNSPECIFIED' ) ;
#150 = APPROVAL_STATUS ( 'not_yet_approved' ) ;
#151 = DIRECTION ( 'NONE',  ( 1.000000000000000000, 0.000000000000000000, 0.000000000000000000 ) ) ;
#152 = DATE_TIME_ROLE ( 'classification_date' ) ;
#153 = PERSON_AND_ORGANIZATION_ROLE ( 'design_owner' ) ;
#154 = SECURITY_CLASSIFICATION ( '', '', #124 ) ;
#155 = DIRECTION ( 'NONE',  ( 0.000000000000000000, 0.000000000000000000, 1.000000000000000000 ) ) ;
#156 = AXIS2_PLACEMENT_3D ( 'NONE', #86, #119, #131 ) ;
#157 = CARTESIAN_POINT ( 'NONE',  ( 0.000000000000000000, 0.000000000000000000, 1.000000000000000000 ) ) ;
#158 = DIRECTION ( 'NONE',  ( 1.000000000000000000, 0.000000000000000000, 0.000000000000000000 ) ) ;
#159 = ORIENTED_EDGE ( 'NONE', *, *, #26, .T. ) ;
#160 = ADVANCED_BREP_SHAPE_REPRESENTATION ( 'Web Model 19837_22696', ( #66, #109 ), #6 ) ;
#161 = CC_DESIGN_APPROVAL ( #149, ( #41 ) ) ;
#162 = PRODUCT ( 'Web Model 19837_22696', 'Web Model 19837_22696', '', ( #136 ) ) ;
#163 = APPLICATION_PROTOCOL_DEFINITION ( 'international standard', 'config_control_design', 1994, #5 ) ;
#164 = PERSON_AND_ORGANIZATION ( #99, #100 ) ;
#165 = PERSON_AND_ORGANIZATION ( #99, #100 ) ;
#166 = PERSON_AND_ORGANIZATION_ROLE ( 'classification_officer' ) ;
#167 = APPLICATION_PROTOCOL_DEFINITION ( 'international standard', 'config_control_design', 1994, #15 ) ;
#168 = APPROVAL_PERSON_ORGANIZATION ( #90, #14, #2 ) ;
#169 = DATE_AND_TIME ( #127, #25 ) ;
#170 = DIRECTION ( 'NONE',  ( -0.000000000000000000, -0.000000000000000000, -1.000000000000000000 ) ) ;
#171 = EDGE_CURVE ( 'NONE', #22, #95, #146, .T. ) ;
#172 = CARTESIAN_POINT ( 'NONE',  ( -20.00000000000000000, 0.000000000000000000, 1.000000000000000000 ) ) ;
#173 = CYLINDRICAL_SURFACE ( 'NONE', #82, 20.00000000000000000 ) ;
#174 = FACE_OUTER_BOUND ( 'NONE', #53, .T. ) ;
#175 = AXIS2_PLACEMENT_3D ( 'NONE', #18, #29, #151 ) ;
ENDSEC;
END-ISO-10303-21;
