ISO-10303-21;
HEADER;
FILE_DESCRIPTION (( 'STEP AP203' ),
    '1' );
FILE_NAME ('Web Model 68518.STEP',
    '2017-02-01T13:26:18',
    ( '' ),
    ( '' ),
    'SwSTEP 2.0',
    'SolidWorks 2016',
    '' );
FILE_SCHEMA (( 'CONFIG_CONTROL_DESIGN' ));
ENDSEC;

DATA;
#1 = DIRECTION ( 'NONE',  ( 1.000000000000000000, 0.0000000000000000000, 0.0000000000000000000 ) ) ;
#2 = CARTESIAN_POINT ( 'NONE',  ( 12.50000000000000000, 1.530808498934191500E-015, 0.0000000000000000000 ) ) ;
#3 = LOCAL_TIME ( 8, 26, 18.00000000000000000, #104 ) ;
#4 = DATE_TIME_ROLE ( 'creation_date' ) ;
#5 = FACE_OUTER_BOUND ( 'NONE', #100, .T. ) ;
#6 = EDGE_CURVE ( 'NONE', #57, #155, #111, .T. ) ;
#7 = VERTEX_POINT ( 'NONE', #24 ) ;
#8 = PERSON_AND_ORGANIZATION ( #105, #22 ) ;
#9 = DIRECTION ( 'NONE',  ( 0.0000000000000000000, 0.0000000000000000000, 1.000000000000000000 ) ) ;
#10 = DIRECTION ( 'NONE',  ( -0.0000000000000000000, -0.0000000000000000000, -1.000000000000000000 ) ) ;
#11 = ORIENTED_EDGE ( 'NONE', *, *, #61, .T. ) ;
#12 = ADVANCED_FACE ( 'NONE', ( #5 ), #23, .F. ) ;
#13 = CARTESIAN_POINT ( 'NONE',  ( 0.0000000000000000000, 0.0000000000000000000, 0.0000000000000000000 ) ) ;
#14 = CALENDAR_DATE ( 2017, 1, 2 ) ;
#15 = APPLICATION_CONTEXT ( 'configuration controlled 3d designs of mechanical parts and assemblies' ) ;
#16 = EDGE_CURVE ( 'NONE', #7, #57, #158, .T. ) ;
#17 = COORDINATED_UNIVERSAL_TIME_OFFSET ( 5, 0, .BEHIND. ) ;
#18 = COORDINATED_UNIVERSAL_TIME_OFFSET ( 5, 0, .BEHIND. ) ;
#19 = UNCERTAINTY_MEASURE_WITH_UNIT (LENGTH_MEASURE( 1.000000000000000100E-005 ), #68, 'distance_accuracy_value', 'NONE');
#20 = EDGE_CURVE ( 'NONE', #152, #155, #37, .T. ) ;
#21 = AXIS2_PLACEMENT_3D ( 'NONE', #93, #80, #49 ) ;
#22 = ORGANIZATION ( 'UNSPECIFIED', 'UNSPECIFIED', '' ) ;
#23 = PLANE ( 'NONE',  #144 ) ;
#24 = CARTESIAN_POINT ( 'NONE',  ( 12.50000000000000000, 1.530808498934191500E-015, 2.000000000000000000 ) ) ;
#25 = ORIENTED_EDGE ( 'NONE', *, *, #157, .F. ) ;
#26 = DIRECTION ( 'NONE',  ( -0.0000000000000000000, -0.0000000000000000000, -1.000000000000000000 ) ) ;
#27 = ADVANCED_FACE ( 'NONE', ( #106 ), #132, .T. ) ;
#28 = CARTESIAN_POINT ( 'NONE',  ( 0.0000000000000000000, 0.0000000000000000000, 0.0000000000000000000 ) ) ;
#29 = CARTESIAN_POINT ( 'NONE',  ( 0.0000000000000000000, 0.0000000000000000000, 2.000000000000000000 ) ) ;
#30 = CC_DESIGN_PERSON_AND_ORGANIZATION_ASSIGNMENT ( #142, #109, ( #173 ) ) ;
#31 = PERSON_AND_ORGANIZATION ( #105, #22 ) ;
#32 = APPROVAL_STATUS ( 'not_yet_approved' ) ;
#33 = ORIENTED_EDGE ( 'NONE', *, *, #16, .T. ) ;
#34 = AXIS2_PLACEMENT_3D ( 'NONE', #175, #9, #148 ) ;
#35 = PERSON_AND_ORGANIZATION ( #105, #22 ) ;
#36 = APPROVAL ( #32, 'UNSPECIFIED' ) ;
#37 = CIRCLE ( 'NONE', #153, 12.50000000000000000 ) ;
#38 = CALENDAR_DATE ( 2017, 1, 2 ) ;
#39 = CIRCLE ( 'NONE', #77, 12.50000000000000000 ) ;
#40 = PRODUCT_DEFINITION_FORMATION_WITH_SPECIFIED_SOURCE ( 'ANY', '', #56, .NOT_KNOWN. ) ;
#41 = SHAPE_DEFINITION_REPRESENTATION ( #143, #89 ) ;
#42 = ORIENTED_EDGE ( 'NONE', *, *, #61, .F. ) ;
#43 = CARTESIAN_POINT ( 'NONE',  ( -12.50000000000000000, 0.0000000000000000000, 2.000000000000000000 ) ) ;
#44 = DIRECTION ( 'NONE',  ( -1.000000000000000000, 0.0000000000000000000, 0.0000000000000000000 ) ) ;
#45 = LOCAL_TIME ( 8, 26, 18.00000000000000000, #18 ) ;
#46 = CC_DESIGN_PERSON_AND_ORGANIZATION_ASSIGNMENT ( #8, #110, ( #98 ) ) ;
#47 = DIRECTION ( 'NONE',  ( 0.0000000000000000000, 0.0000000000000000000, 1.000000000000000000 ) ) ;
#48 = PERSON_AND_ORGANIZATION_ROLE ( 'design_supplier' ) ;
#49 = DIRECTION ( 'NONE',  ( 1.000000000000000000, 0.0000000000000000000, 0.0000000000000000000 ) ) ;
#50 = APPLICATION_PROTOCOL_DEFINITION ( 'international standard', 'config_control_design', 1994, #96 ) ;
#51 = ORIENTED_EDGE ( 'NONE', *, *, #157, .T. ) ;
#52 = LOCAL_TIME ( 8, 26, 18.00000000000000000, #54 ) ;
#53 = ORIENTED_EDGE ( 'NONE', *, *, #6, .T. ) ;
#54 = COORDINATED_UNIVERSAL_TIME_OFFSET ( 5, 0, .BEHIND. ) ;
#55 = CC_DESIGN_DATE_AND_TIME_ASSIGNMENT ( #159, #95, ( #98 ) ) ;
#56 = PRODUCT ( 'Web Model 68518', 'Web Model 68518', '', ( #99 ) ) ;
#57 = VERTEX_POINT ( 'NONE', #91 ) ;
#58 = CARTESIAN_POINT ( 'NONE',  ( 0.0000000000000000000, 0.0000000000000000000, 2.000000000000000000 ) ) ;
#59 = DIRECTION ( 'NONE',  ( 1.000000000000000000, 0.0000000000000000000, 0.0000000000000000000 ) ) ;
#60 = VECTOR ( 'NONE', #164, 1000.000000000000000 ) ;
#61 = EDGE_CURVE ( 'NONE', #7, #152, #117, .T. ) ;
#62 = DESIGN_CONTEXT ( 'detailed design', #96, 'design' ) ;
#63 = CC_DESIGN_PERSON_AND_ORGANIZATION_ASSIGNMENT ( #165, #48, ( #40 ) ) ;
#64 = FACE_OUTER_BOUND ( 'NONE', #88, .T. ) ;
#65 = CARTESIAN_POINT ( 'NONE',  ( -12.50000000000000000, 0.0000000000000000000, 0.0000000000000000000 ) ) ;
#66 = CC_DESIGN_DATE_AND_TIME_ASSIGNMENT ( #174, #4, ( #173 ) ) ;
#67 = DIRECTION ( 'NONE',  ( 1.000000000000000000, 0.0000000000000000000, 0.0000000000000000000 ) ) ;
#68 =( LENGTH_UNIT ( ) NAMED_UNIT ( * ) SI_UNIT ( .MILLI., .METRE. ) );
#69 = APPROVAL_ROLE ( '' ) ;
#70 = CALENDAR_DATE ( 2017, 1, 2 ) ;
#71 = ORIENTED_EDGE ( 'NONE', *, *, #16, .F. ) ;
#72 = APPROVAL ( #154, 'UNSPECIFIED' ) ;
#73 = APPROVAL_PERSON_ORGANIZATION ( #31, #36, #126 ) ;
#74 = CYLINDRICAL_SURFACE ( 'NONE', #92, 12.50000000000000000 ) ;
#75 = VECTOR ( 'NONE', #122, 1000.000000000000000 ) ;
#76 = APPROVAL_PERSON_ORGANIZATION ( #90, #138, #69 ) ;
#77 = AXIS2_PLACEMENT_3D ( 'NONE', #13, #47, #140 ) ;
#78 = CARTESIAN_POINT ( 'NONE',  ( 0.0000000000000000000, 0.0000000000000000000, 2.000000000000000000 ) ) ;
#79 = FACE_OUTER_BOUND ( 'NONE', #128, .T. ) ;
#80 = DIRECTION ( 'NONE',  ( 0.0000000000000000000, 0.0000000000000000000, 1.000000000000000000 ) ) ;
#81 = DATE_AND_TIME ( #14, #52 ) ;
#82 = PERSON_AND_ORGANIZATION_ROLE ( 'design_owner' ) ;
#83 = APPLICATION_PROTOCOL_DEFINITION ( 'international standard', 'config_control_design', 1994, #15 ) ;
#84 = APPROVAL_ROLE ( '' ) ;
#85 =( GEOMETRIC_REPRESENTATION_CONTEXT ( 3 ) GLOBAL_UNCERTAINTY_ASSIGNED_CONTEXT ( ( #19 ) ) GLOBAL_UNIT_ASSIGNED_CONTEXT ( ( #68, #136, #166 ) ) REPRESENTATION_CONTEXT ( 'NONE', 'WORKASPACE' ) );
#86 = ORIENTED_EDGE ( 'NONE', *, *, #6, .F. ) ;
#87 = PERSON_AND_ORGANIZATION ( #105, #22 ) ;
#88 = EDGE_LOOP ( 'NONE', ( #114, #33 ) ) ;
#89 = ADVANCED_BREP_SHAPE_REPRESENTATION ( 'Web Model 68518', ( #167, #21 ), #85 ) ;
#90 = PERSON_AND_ORGANIZATION ( #105, #22 ) ;
#91 = CARTESIAN_POINT ( 'NONE',  ( -12.50000000000000000, 0.0000000000000000000, 2.000000000000000000 ) ) ;
#92 = AXIS2_PLACEMENT_3D ( 'NONE', #78, #26, #120 ) ;
#93 = CARTESIAN_POINT ( 'NONE',  ( 0.0000000000000000000, 0.0000000000000000000, 0.0000000000000000000 ) ) ;
#94 = DIRECTION ( 'NONE',  ( 0.0000000000000000000, 0.0000000000000000000, 1.000000000000000000 ) ) ;
#95 = DATE_TIME_ROLE ( 'classification_date' ) ;
#96 = APPLICATION_CONTEXT ( 'configuration controlled 3d designs of mechanical parts and assemblies' ) ;
#97 = EDGE_CURVE ( 'NONE', #57, #7, #168, .T. ) ;
#98 = SECURITY_CLASSIFICATION ( '', '', #151 ) ;
#99 = MECHANICAL_CONTEXT ( 'NONE', #15, 'mechanical' ) ;
#100 = EDGE_LOOP ( 'NONE', ( #25, #124 ) ) ;
#101 = CC_DESIGN_PERSON_AND_ORGANIZATION_ASSIGNMENT ( #35, #169, ( #40 ) ) ;
#102 = ADVANCED_FACE ( 'NONE', ( #64 ), #147, .T. ) ;
#103 = APPROVAL_DATE_TIME ( #125, #36 ) ;
#104 = COORDINATED_UNIVERSAL_TIME_OFFSET ( 5, 0, .BEHIND. ) ;
#105 = PERSON ( 'UNSPECIFIED', 'UNSPECIFIED', 'UNSPECIFIED', ('UNSPECIFIED'), ('UNSPECIFIED'), ('UNSPECIFIED') ) ;
#106 = FACE_OUTER_BOUND ( 'NONE', #119, .T. ) ;
#107 = CC_DESIGN_APPROVAL ( #72, ( #98 ) ) ;
#108 = DIRECTION ( 'NONE',  ( 0.0000000000000000000, 0.0000000000000000000, 1.000000000000000000 ) ) ;
#109 = PERSON_AND_ORGANIZATION_ROLE ( 'creator' ) ;
#110 = PERSON_AND_ORGANIZATION_ROLE ( 'classification_officer' ) ;
#111 = LINE ( 'NONE', #43, #75 ) ;
#112 = APPROVAL_STATUS ( 'not_yet_approved' ) ;
#113 = APPROVAL_DATE_TIME ( #81, #72 ) ;
#114 = ORIENTED_EDGE ( 'NONE', *, *, #97, .T. ) ;
#115 = AXIS2_PLACEMENT_3D ( 'NONE', #149, #139, #67 ) ;
#116 = CC_DESIGN_SECURITY_CLASSIFICATION ( #98, ( #40 ) ) ;
#117 = LINE ( 'NONE', #135, #60 ) ;
#118 = CC_DESIGN_APPROVAL ( #138, ( #173 ) ) ;
#119 = EDGE_LOOP ( 'NONE', ( #71, #11, #121, #86 ) ) ;
#120 = DIRECTION ( 'NONE',  ( -1.000000000000000000, 0.0000000000000000000, 0.0000000000000000000 ) ) ;
#121 = ORIENTED_EDGE ( 'NONE', *, *, #20, .T. ) ;
#122 = DIRECTION ( 'NONE',  ( -0.0000000000000000000, -0.0000000000000000000, -1.000000000000000000 ) ) ;
#123 = LOCAL_TIME ( 8, 26, 18.00000000000000000, #17 ) ;
#124 = ORIENTED_EDGE ( 'NONE', *, *, #20, .F. ) ;
#125 = DATE_AND_TIME ( #38, #131 ) ;
#126 = APPROVAL_ROLE ( '' ) ;
#127 = PRODUCT_RELATED_PRODUCT_CATEGORY ( 'detail', '', ( #56 ) ) ;
#128 = EDGE_LOOP ( 'NONE', ( #42, #163, #53, #51 ) ) ;
#129 = CC_DESIGN_APPROVAL ( #36, ( #40 ) ) ;
#130 = CLOSED_SHELL ( 'NONE', ( #27, #137, #102, #12 ) ) ;
#131 = LOCAL_TIME ( 8, 26, 18.00000000000000000, #133 ) ;
#132 = CYLINDRICAL_SURFACE ( 'NONE', #172, 12.50000000000000000 ) ;
#133 = COORDINATED_UNIVERSAL_TIME_OFFSET ( 5, 0, .BEHIND. ) ;
#134 = DIRECTION ( 'NONE',  ( 1.000000000000000000, 0.0000000000000000000, -0.0000000000000000000 ) ) ;
#135 = CARTESIAN_POINT ( 'NONE',  ( 12.50000000000000000, 1.530808498934191500E-015, 2.000000000000000000 ) ) ;
#136 =( NAMED_UNIT ( * ) PLANE_ANGLE_UNIT ( ) SI_UNIT ( $, .RADIAN. ) );
#137 = ADVANCED_FACE ( 'NONE', ( #79 ), #74, .T. ) ;
#138 = APPROVAL ( #112, 'UNSPECIFIED' ) ;
#139 = DIRECTION ( 'NONE',  ( 0.0000000000000000000, 0.0000000000000000000, 1.000000000000000000 ) ) ;
#140 = DIRECTION ( 'NONE',  ( 1.000000000000000000, 0.0000000000000000000, 0.0000000000000000000 ) ) ;
#141 = DATE_AND_TIME ( #171, #3 ) ;
#142 = PERSON_AND_ORGANIZATION ( #105, #22 ) ;
#143 = PRODUCT_DEFINITION_SHAPE ( 'NONE', 'NONE',  #173 ) ;
#144 = AXIS2_PLACEMENT_3D ( 'NONE', #28, #160, #134 ) ;
#145 = CC_DESIGN_PERSON_AND_ORGANIZATION_ASSIGNMENT ( #146, #82, ( #56 ) ) ;
#146 = PERSON_AND_ORGANIZATION ( #105, #22 ) ;
#147 = PLANE ( 'NONE',  #34 ) ;
#148 = DIRECTION ( 'NONE',  ( 1.000000000000000000, 0.0000000000000000000, -0.0000000000000000000 ) ) ;
#149 = CARTESIAN_POINT ( 'NONE',  ( 0.0000000000000000000, 0.0000000000000000000, 2.000000000000000000 ) ) ;
#150 = CALENDAR_DATE ( 2017, 1, 2 ) ;
#151 = SECURITY_CLASSIFICATION_LEVEL ( 'unclassified' ) ;
#152 = VERTEX_POINT ( 'NONE', #2 ) ;
#153 = AXIS2_PLACEMENT_3D ( 'NONE', #162, #108, #59 ) ;
#154 = APPROVAL_STATUS ( 'not_yet_approved' ) ;
#155 = VERTEX_POINT ( 'NONE', #65 ) ;
#156 = APPROVAL_PERSON_ORGANIZATION ( #87, #72, #84 ) ;
#157 = EDGE_CURVE ( 'NONE', #155, #152, #39, .T. ) ;
#158 = CIRCLE ( 'NONE', #115, 12.50000000000000000 ) ;
#159 = DATE_AND_TIME ( #150, #123 ) ;
#160 = DIRECTION ( 'NONE',  ( 0.0000000000000000000, 0.0000000000000000000, 1.000000000000000000 ) ) ;
#161 = AXIS2_PLACEMENT_3D ( 'NONE', #29, #94, #1 ) ;
#162 = CARTESIAN_POINT ( 'NONE',  ( 0.0000000000000000000, 0.0000000000000000000, 0.0000000000000000000 ) ) ;
#163 = ORIENTED_EDGE ( 'NONE', *, *, #97, .F. ) ;
#164 = DIRECTION ( 'NONE',  ( -0.0000000000000000000, -0.0000000000000000000, -1.000000000000000000 ) ) ;
#165 = PERSON_AND_ORGANIZATION ( #105, #22 ) ;
#166 =( NAMED_UNIT ( * ) SI_UNIT ( $, .STERADIAN. ) SOLID_ANGLE_UNIT ( ) );
#167 = MANIFOLD_SOLID_BREP ( 'Extrude1', #130 ) ;
#168 = CIRCLE ( 'NONE', #161, 12.50000000000000000 ) ;
#169 = PERSON_AND_ORGANIZATION_ROLE ( 'creator' ) ;
#170 = APPROVAL_DATE_TIME ( #141, #138 ) ;
#171 = CALENDAR_DATE ( 2017, 1, 2 ) ;
#172 = AXIS2_PLACEMENT_3D ( 'NONE', #58, #10, #44 ) ;
#173 = PRODUCT_DEFINITION ( 'UNKNOWN', '', #40, #62 ) ;
#174 = DATE_AND_TIME ( #70, #45 ) ;
#175 = CARTESIAN_POINT ( 'NONE',  ( 0.0000000000000000000, 0.0000000000000000000, 2.000000000000000000 ) ) ;
ENDSEC;
END-ISO-10303-21;
