ISO-10303-21;
HEADER;
FILE_DESCRIPTION (( 'STEP AP214' ),
    '1' );
FILE_NAME ('4852-E0W.STEP',
    '2009-12-21T17:15:21',
    ( ' ' ),
    ( ' ' ),
    'SwSTEP 2.0',
    'SolidWorks 2009',
    '' );
FILE_SCHEMA (( 'AUTOMOTIVE_DESIGN' ));
ENDSEC;

DATA;
#1 = CARTESIAN_POINT ( 'NONE',  ( 0.0000000000000000000, 0.0000000000000000000, 9.212316277905259200 ) ) ;
#2 = DIRECTION ( 'NONE',  ( 1.000000000000000000, 0.0000000000000000000, 0.0000000000000000000 ) ) ;
#3 = AXIS2_PLACEMENT_3D ( 'NONE', #1, #4, #2 ) ;
#4 = DIRECTION ( 'NONE',  ( -0.0000000000000000000, -0.0000000000000000000, 1.000000000000000000 ) ) ;
#5 = CYLINDRICAL_SURFACE ( 'NONE', #3, 12.69999999999999900 ) ;
#6 = DIRECTION ( 'NONE',  ( -0.0000000000000000000, -0.0000000000000000000, 1.000000000000000000 ) ) ;
#7 = DIRECTION ( 'NONE',  ( 1.000000000000000000, 0.0000000000000000000, 0.0000000000000000000 ) ) ;
#8 = AXIS2_PLACEMENT_3D ( 'NONE', #10, #6, #7 ) ;
#9 = UNCERTAINTY_MEASURE_WITH_UNIT (LENGTH_MEASURE( 1.000000000000000100E-005 ), #35, 'distance_accuracy_value', 'NONE');
#10 = CARTESIAN_POINT ( 'NONE',  ( 0.0000000000000000000, 0.0000000000000000000, -1.832212523064202800 ) ) ;
#11 = CIRCLE ( 'NONE', #8, 12.69999999999999900 ) ;
#12 = CARTESIAN_POINT ( 'NONE',  ( 0.0000000000000000000, 0.0000000000000000000, -47.22778747693579500 ) ) ;
#13 = DIRECTION ( 'NONE',  ( -0.0000000000000000000, -0.0000000000000000000, 1.000000000000000000 ) ) ;
#14 = FACE_OUTER_BOUND ( 'NONE', #161, .T. ) ;
#15 = DIRECTION ( 'NONE',  ( 1.000000000000000000, 0.0000000000000000000, 0.0000000000000000000 ) ) ;
#16 = CIRCLE ( 'NONE', #32, 12.70000000000000100 ) ;
#17 = DIRECTION ( 'NONE',  ( 1.000000000000000000, 0.0000000000000000000, 0.0000000000000000000 ) ) ;
#18 = CIRCLE ( 'NONE', #23, 49.06000000000000200 ) ;
#19 = CARTESIAN_POINT ( 'NONE',  ( -1.555250069354419500E-015, -12.70000000000000300, 0.1599071283095590800 ) ) ;
#20 = CARTESIAN_POINT ( 'NONE',  ( 0.0000000000000000000, 0.0000000000000000000, 0.1599071283095599400 ) ) ;
#21 =( NAMED_UNIT ( * ) SI_UNIT ( $, .STERADIAN. ) SOLID_ANGLE_UNIT ( ) );
#22 =( NAMED_UNIT ( * ) PLANE_ANGLE_UNIT ( ) SI_UNIT ( $, .RADIAN. ) );
#23 = AXIS2_PLACEMENT_3D ( 'NONE', #12, #17, #34 ) ;
#24 = FILL_AREA_STYLE ('',( #25 ) ) ;
#25 = FILL_AREA_STYLE_COLOUR ( '', #26 ) ;
#26 = COLOUR_RGB ( '',0.9568627450980391500, 0.9490196078431372100, 0.9607843137254902200 ) ;
#27 = DIRECTION ( 'NONE',  ( 1.000000000000000000, 0.0000000000000000000, 0.0000000000000000000 ) ) ;
#28 = DIRECTION ( 'NONE',  ( -0.0000000000000000000, -0.0000000000000000000, 1.000000000000000000 ) ) ;
#29 = CARTESIAN_POINT ( 'NONE',  ( 0.0000000000000000000, 0.0000000000000000000, -1.832212523064202800 ) ) ;
#30 = AXIS2_PLACEMENT_3D ( 'NONE', #29, #28, #27 ) ;
#31 = CIRCLE ( 'NONE', #30, 12.69999999999999900 ) ;
#32 = AXIS2_PLACEMENT_3D ( 'NONE', #20, #13, #15 ) ;
#33 = CARTESIAN_POINT ( 'NONE',  ( 0.0000000000000000000, 3.003959385926291200E-015, 1.832212523064202800 ) ) ;
#34 = DIRECTION ( 'NONE',  ( 0.0000000000000000000, 0.0000000000000000000, -1.000000000000000000 ) ) ;
#35 =( LENGTH_UNIT ( ) NAMED_UNIT ( * ) SI_UNIT ( .MILLI., .METRE. ) );
#36 = MECHANICAL_DESIGN_GEOMETRIC_PRESENTATION_REPRESENTATION (  '', ( #38 ), #68 ) ;
#37 = PRESENTATION_LAYER_ASSIGNMENT (  '', '', ( #38 ) ) ;
#38 = STYLED_ITEM ( 'NONE', ( #39 ), #171 ) ;
#39 = PRESENTATION_STYLE_ASSIGNMENT (( #40 ) ) ;
#40 = SURFACE_STYLE_USAGE ( .BOTH. , #41 ) ;
#41 = SURFACE_SIDE_STYLE ('',( #42 ) ) ;
#42 = SURFACE_STYLE_FILL_AREA ( #24 ) ;
#43 = ADVANCED_BREP_SHAPE_REPRESENTATION ( '4852-E0W', ( #122, #46 ), #70 ) ;
#44 = CARTESIAN_POINT ( 'NONE',  ( 0.0000000000000000000, 0.0000000000000000000, -47.22778747693579500 ) ) ;
#45 =( NAMED_UNIT ( * ) SI_UNIT ( $, .STERADIAN. ) SOLID_ANGLE_UNIT ( ) );
#46 = AXIS2_PLACEMENT_3D ( 'NONE', #75, #61, #65 ) ;
#47 =( GEOMETRIC_REPRESENTATION_CONTEXT ( 3 ) GLOBAL_UNCERTAINTY_ASSIGNED_CONTEXT ( ( #48 ) ) GLOBAL_UNIT_ASSIGNED_CONTEXT ( ( #76, #59, #58 ) ) REPRESENTATION_CONTEXT ( 'NONE', 'WORKASPACE' ) );
#48 = UNCERTAINTY_MEASURE_WITH_UNIT (LENGTH_MEASURE( 1.000000000000000100E-005 ), #76, 'distance_accuracy_value', 'NONE');
#49 = STYLED_ITEM ( 'NONE', ( #50 ), #43 ) ;
#50 = PRESENTATION_STYLE_ASSIGNMENT (( #51 ) ) ;
#51 = SURFACE_STYLE_USAGE ( .BOTH. , #52 ) ;
#52 = SURFACE_SIDE_STYLE ('',( #53 ) ) ;
#53 = SURFACE_STYLE_FILL_AREA ( #54 ) ;
#54 = FILL_AREA_STYLE ('',( #55 ) ) ;
#55 = FILL_AREA_STYLE_COLOUR ( '', #56 ) ;
#56 = COLOUR_RGB ( '',0.7960784313725489700, 0.8235294117647058400, 0.9372549019607843100 ) ;
#57 = UNCERTAINTY_MEASURE_WITH_UNIT (LENGTH_MEASURE( 1.000000000000000100E-005 ), #66, 'distance_accuracy_value', 'NONE');
#58 =( NAMED_UNIT ( * ) SI_UNIT ( $, .STERADIAN. ) SOLID_ANGLE_UNIT ( ) );
#59 =( NAMED_UNIT ( * ) PLANE_ANGLE_UNIT ( ) SI_UNIT ( $, .RADIAN. ) );
#60 = CIRCLE ( 'NONE', #64, 12.70000000000000100 ) ;
#61 = DIRECTION ( 'NONE',  ( 0.0000000000000000000, 0.0000000000000000000, 1.000000000000000000 ) ) ;
#62 = DIRECTION ( 'NONE',  ( -0.0000000000000000000, -0.0000000000000000000, 1.000000000000000000 ) ) ;
#63 = CARTESIAN_POINT ( 'NONE',  ( 0.0000000000000000000, 0.0000000000000000000, 0.1599071283095599400 ) ) ;
#64 = AXIS2_PLACEMENT_3D ( 'NONE', #63, #62, #69 ) ;
#65 = DIRECTION ( 'NONE',  ( 1.000000000000000000, 0.0000000000000000000, 0.0000000000000000000 ) ) ;
#66 =( LENGTH_UNIT ( ) NAMED_UNIT ( * ) SI_UNIT ( .MILLI., .METRE. ) );
#67 = DIRECTION ( 'NONE',  ( 0.0000000000000000000, 1.000000000000000000, 0.0000000000000000000 ) ) ;
#68 =( GEOMETRIC_REPRESENTATION_CONTEXT ( 3 ) GLOBAL_UNCERTAINTY_ASSIGNED_CONTEXT ( ( #9 ) ) GLOBAL_UNIT_ASSIGNED_CONTEXT ( ( #35, #22, #21 ) ) REPRESENTATION_CONTEXT ( 'NONE', 'WORKASPACE' ) );
#69 = DIRECTION ( 'NONE',  ( 1.000000000000000000, 0.0000000000000000000, 0.0000000000000000000 ) ) ;
#70 =( GEOMETRIC_REPRESENTATION_CONTEXT ( 3 ) GLOBAL_UNCERTAINTY_ASSIGNED_CONTEXT ( ( #57 ) ) GLOBAL_UNIT_ASSIGNED_CONTEXT ( ( #66, #72, #45 ) ) REPRESENTATION_CONTEXT ( 'NONE', 'WORKASPACE' ) );
#71 = SPHERICAL_SURFACE ( 'NONE', #74, 49.06000000000000200 ) ;
#72 =( NAMED_UNIT ( * ) PLANE_ANGLE_UNIT ( ) SI_UNIT ( $, .RADIAN. ) );
#73 = DIRECTION ( 'NONE',  ( -1.000000000000000000, 0.0000000000000000000, 0.0000000000000000000 ) ) ;
#74 = AXIS2_PLACEMENT_3D ( 'NONE', #44, #73, #67 ) ;
#75 = CARTESIAN_POINT ( 'NONE',  ( 0.0000000000000000000, 0.0000000000000000000, 0.0000000000000000000 ) ) ;
#76 =( LENGTH_UNIT ( ) NAMED_UNIT ( * ) SI_UNIT ( .MILLI., .METRE. ) );
#77 = MECHANICAL_DESIGN_GEOMETRIC_PRESENTATION_REPRESENTATION (  '', ( #49 ), #47 ) ;
#78 = PRESENTATION_LAYER_ASSIGNMENT (  '', '', ( #49 ) ) ;
#79 = APPLICATION_CONTEXT ( 'automotive_design' ) ;
#80 = APPLICATION_PROTOCOL_DEFINITION ( 'draft international standard', 'automotive_design', 1998, #79 ) ;
#81 = PRODUCT ( '4852-E0W', '4852-E0W', '', ( #86 ) ) ;
#82 = PRODUCT_RELATED_PRODUCT_CATEGORY ( 'part', '', ( #81 ) ) ;
#83 = PRODUCT_DEFINITION ( 'UNKNOWN', '', #85, #84 ) ;
#84 = PRODUCT_DEFINITION_CONTEXT ( 'detailed design', #79, 'design' ) ;
#85 = PRODUCT_DEFINITION_FORMATION_WITH_SPECIFIED_SOURCE ( 'ANY', '', #81, .NOT_KNOWN. ) ;
#86 = PRODUCT_CONTEXT ( 'NONE', #87, 'mechanical' ) ;
#87 = APPLICATION_CONTEXT ( 'automotive_design' ) ;
#88 = APPLICATION_PROTOCOL_DEFINITION ( 'draft international standard', 'automotive_design', 1998, #87 ) ;
#89 = SHAPE_DEFINITION_REPRESENTATION ( #90, #43 ) ;
#90 = PRODUCT_DEFINITION_SHAPE ( 'NONE', 'NONE',  #83 ) ;
#91 = ADVANCED_FACE ( 'NONE', ( #173 ), #191, .T. ) ;
#92 = ORIENTED_EDGE ( 'NONE', *, *, #164, .T. ) ;
#93 = ORIENTED_EDGE ( 'NONE', *, *, #95, .T. ) ;
#94 = EDGE_LOOP ( 'NONE', ( #167, #166, #93, #150 ) ) ;
#95 = EDGE_CURVE ( 'NONE', #165, #157, #216, .T. ) ;
#96 = EDGE_CURVE ( 'NONE', #98, #112, #215, .T. ) ;
#97 = ADVANCED_FACE ( 'NONE', ( #201 ), #185, .F. ) ;
#98 = VERTEX_POINT ( 'NONE', #239 ) ;
#99 = ORIENTED_EDGE ( 'NONE', *, *, #152, .T. ) ;
#100 = ORIENTED_EDGE ( 'NONE', *, *, #109, .F. ) ;
#101 = CLOSED_SHELL ( 'NONE', ( #120, #155, #147, #171, #91, #97 ) ) ;
#102 = ORIENTED_EDGE ( 'NONE', *, *, #153, .F. ) ;
#103 = ORIENTED_EDGE ( 'NONE', *, *, #168, .F. ) ;
#104 = ORIENTED_EDGE ( 'NONE', *, *, #156, .F. ) ;
#105 = ORIENTED_EDGE ( 'NONE', *, *, #164, .F. ) ;
#106 = VERTEX_POINT ( 'NONE', #226 ) ;
#107 = ORIENTED_EDGE ( 'NONE', *, *, #96, .T. ) ;
#108 = VERTEX_POINT ( 'NONE', #238 ) ;
#109 = EDGE_CURVE ( 'NONE', #108, #112, #233, .T. ) ;
#110 = ORIENTED_EDGE ( 'NONE', *, *, #96, .F. ) ;
#111 = ORIENTED_EDGE ( 'NONE', *, *, #172, .F. ) ;
#112 = VERTEX_POINT ( 'NONE', #225 ) ;
#113 = EDGE_LOOP ( 'NONE', ( #110, #103, #102, #114 ) ) ;
#114 = ORIENTED_EDGE ( 'NONE', *, *, #109, .T. ) ;
#115 =( LENGTH_UNIT ( ) NAMED_UNIT ( * ) SI_UNIT ( .MILLI., .METRE. ) );
#116 =( NAMED_UNIT ( * ) SI_UNIT ( $, .STERADIAN. ) SOLID_ANGLE_UNIT ( ) );
#117 =( GEOMETRIC_REPRESENTATION_CONTEXT ( 3 ) GLOBAL_UNCERTAINTY_ASSIGNED_CONTEXT ( ( #121 ) ) GLOBAL_UNIT_ASSIGNED_CONTEXT ( ( #115, #118, #116 ) ) REPRESENTATION_CONTEXT ( 'NONE', 'WORKASPACE' ) );
#118 =( NAMED_UNIT ( * ) PLANE_ANGLE_UNIT ( ) SI_UNIT ( $, .RADIAN. ) );
#119 = EDGE_LOOP ( 'NONE', ( #123, #107, #100, #104 ) ) ;
#120 = ADVANCED_FACE ( 'NONE', ( #244 ), #246, .F. ) ;
#121 = UNCERTAINTY_MEASURE_WITH_UNIT (LENGTH_MEASURE( 1.000000000000000100E-005 ), #115, 'distance_accuracy_value', 'NONE');
#122 = MANIFOLD_SOLID_BREP ( 'NONE', #101 ) ;
#123 = ORIENTED_EDGE ( 'NONE', *, *, #124, .F. ) ;
#124 = EDGE_CURVE ( 'NONE', #98, #106, #271, .T. ) ;
#125 = AXIS2_PLACEMENT_3D ( 'NONE', #126, #132, #131 ) ;
#126 = CARTESIAN_POINT ( 'NONE',  ( 0.0000000000000000000, 0.0000000000000000000, 0.1599071283095599400 ) ) ;
#127 =( NAMED_UNIT ( * ) PLANE_ANGLE_UNIT ( ) SI_UNIT ( $, .RADIAN. ) );
#128 =( NAMED_UNIT ( * ) SI_UNIT ( $, .STERADIAN. ) SOLID_ANGLE_UNIT ( ) );
#129 = CIRCLE ( 'NONE', #125, 12.70000000000000100 ) ;
#130 = UNCERTAINTY_MEASURE_WITH_UNIT (LENGTH_MEASURE( 1.000000000000000100E-005 ), #281, 'distance_accuracy_value', 'NONE');
#131 = DIRECTION ( 'NONE',  ( 1.000000000000000000, 0.0000000000000000000, 0.0000000000000000000 ) ) ;
#132 = DIRECTION ( 'NONE',  ( -0.0000000000000000000, -0.0000000000000000000, 1.000000000000000000 ) ) ;
#133 =( GEOMETRIC_REPRESENTATION_CONTEXT ( 3 ) GLOBAL_UNCERTAINTY_ASSIGNED_CONTEXT ( ( #130 ) ) GLOBAL_UNIT_ASSIGNED_CONTEXT ( ( #281, #127, #128 ) ) REPRESENTATION_CONTEXT ( 'NONE', 'WORKASPACE' ) );
#134 = UNCERTAINTY_MEASURE_WITH_UNIT (LENGTH_MEASURE( 1.000000000000000100E-005 ), #317, 'distance_accuracy_value', 'NONE');
#135 =( GEOMETRIC_REPRESENTATION_CONTEXT ( 3 ) GLOBAL_UNCERTAINTY_ASSIGNED_CONTEXT ( ( #134 ) ) GLOBAL_UNIT_ASSIGNED_CONTEXT ( ( #317, #316, #315 ) ) REPRESENTATION_CONTEXT ( 'NONE', 'WORKASPACE' ) );
#136 = VERTEX_POINT ( 'NONE', #251 ) ;
#137 = ORIENTED_EDGE ( 'NONE', *, *, #145, .F. ) ;
#138 = ORIENTED_EDGE ( 'NONE', *, *, #152, .F. ) ;
#139 = VERTEX_POINT ( 'NONE', #250 ) ;
#140 = ORIENTED_EDGE ( 'NONE', *, *, #142, .F. ) ;
#141 = EDGE_CURVE ( 'NONE', #136, #154, #257, .T. ) ;
#142 = EDGE_CURVE ( 'NONE', #106, #139, #245, .T. ) ;
#143 = VERTEX_POINT ( 'NONE', #264 ) ;
#144 = ORIENTED_EDGE ( 'NONE', *, *, #153, .T. ) ;
#145 = EDGE_CURVE ( 'NONE', #143, #154, #129, .T. ) ;
#146 = ORIENTED_EDGE ( 'NONE', *, *, #156, .T. ) ;
#147 = ADVANCED_FACE ( 'NONE', ( #287 ), #313, .T. ) ;
#148 = ORIENTED_EDGE ( 'NONE', *, *, #168, .T. ) ;
#149 = ORIENTED_EDGE ( 'NONE', *, *, #142, .T. ) ;
#150 = ORIENTED_EDGE ( 'NONE', *, *, #159, .F. ) ;
#151 = ORIENTED_EDGE ( 'NONE', *, *, #141, .T. ) ;
#152 = EDGE_CURVE ( 'NONE', #139, #143, #293, .T. ) ;
#153 = EDGE_CURVE ( 'NONE', #108, #136, #303, .T. ) ;
#154 = VERTEX_POINT ( 'NONE', #312 ) ;
#155 = ADVANCED_FACE ( 'NONE', ( #306 ), #5, .T. ) ;
#156 = EDGE_CURVE ( 'NONE', #106, #108, #11, .T. ) ;
#157 = VERTEX_POINT ( 'NONE', #33 ) ;
#158 = ORIENTED_EDGE ( 'NONE', *, *, #124, .T. ) ;
#159 = EDGE_CURVE ( 'NONE', #143, #157, #18, .T. ) ;
#160 = EDGE_LOOP ( 'NONE', ( #146, #144, #151, #137, #138, #140 ) ) ;
#161 = EDGE_LOOP ( 'NONE', ( #163, #92, #99, #169 ) ) ;
#162 = ORIENTED_EDGE ( 'NONE', *, *, #141, .F. ) ;
#163 = ORIENTED_EDGE ( 'NONE', *, *, #95, .F. ) ;
#164 = EDGE_CURVE ( 'NONE', #165, #139, #16, .T. ) ;
#165 = VERTEX_POINT ( 'NONE', #19 ) ;
#166 = ORIENTED_EDGE ( 'NONE', *, *, #172, .T. ) ;
#167 = ORIENTED_EDGE ( 'NONE', *, *, #145, .T. ) ;
#168 = EDGE_CURVE ( 'NONE', #136, #98, #31, .T. ) ;
#169 = ORIENTED_EDGE ( 'NONE', *, *, #159, .T. ) ;
#170 = EDGE_LOOP ( 'NONE', ( #162, #148, #158, #149, #105, #111 ) ) ;
#171 = ADVANCED_FACE ( 'NONE', ( #14 ), #71, .T. ) ;
#172 = EDGE_CURVE ( 'NONE', #154, #165, #60, .T. ) ;
#173 = FACE_OUTER_BOUND ( 'NONE', #170, .T. ) ;
#174 = COLOUR_RGB ( '',0.9568627450980391500, 0.9490196078431372100, 0.9607843137254902200 ) ;
#175 = SURFACE_STYLE_FILL_AREA ( #182 ) ;
#176 = MECHANICAL_DESIGN_GEOMETRIC_PRESENTATION_REPRESENTATION (  '', ( #178 ), #117 ) ;
#177 = PRESENTATION_LAYER_ASSIGNMENT (  '', '', ( #178 ) ) ;
#178 = STYLED_ITEM ( 'NONE', ( #179 ), #91 ) ;
#179 = PRESENTATION_STYLE_ASSIGNMENT (( #180 ) ) ;
#180 = SURFACE_STYLE_USAGE ( .BOTH. , #181 ) ;
#181 = SURFACE_SIDE_STYLE ('',( #175 ) ) ;
#182 = FILL_AREA_STYLE ('',( #183 ) ) ;
#183 = FILL_AREA_STYLE_COLOUR ( '', #174 ) ;
#184 = DIRECTION ( 'NONE',  ( -0.0000000000000000000, -0.0000000000000000000, 1.000000000000000000 ) ) ;
#185 = SPHERICAL_SURFACE ( 'NONE', #190, 131.5600000000000000 ) ;
#186 = CARTESIAN_POINT ( 'NONE',  ( 0.0000000000000000000, 0.0000000000000000000, 9.212316277905259200 ) ) ;
#187 = AXIS2_PLACEMENT_3D ( 'NONE', #186, #184, #193 ) ;
#188 = CARTESIAN_POINT ( 'NONE',  ( 0.0000000000000000000, 0.0000000000000000000, -132.7777874769358000 ) ) ;
#189 = DIRECTION ( 'NONE',  ( -1.000000000000000000, 0.0000000000000000000, 0.0000000000000000000 ) ) ;
#190 = AXIS2_PLACEMENT_3D ( 'NONE', #188, #189, #192 ) ;
#191 = CYLINDRICAL_SURFACE ( 'NONE', #187, 12.69999999999999900 ) ;
#192 = DIRECTION ( 'NONE',  ( 0.0000000000000000000, 1.000000000000000000, 0.0000000000000000000 ) ) ;
#193 = DIRECTION ( 'NONE',  ( 1.000000000000000000, 0.0000000000000000000, 0.0000000000000000000 ) ) ;
#194 = SURFACE_SIDE_STYLE ('',( #195 ) ) ;
#195 = SURFACE_STYLE_FILL_AREA ( #196 ) ;
#196 = FILL_AREA_STYLE ('',( #198 ) ) ;
#197 = DIRECTION ( 'NONE',  ( -1.224606353822377000E-016, -1.000000000000000000, 0.0000000000000000000 ) ) ;
#198 = FILL_AREA_STYLE_COLOUR ( '', #199 ) ;
#199 = COLOUR_RGB ( '',0.9568627450980391500, 0.9490196078431372100, 0.9607843137254902200 ) ;
#200 =( GEOMETRIC_REPRESENTATION_CONTEXT ( 3 ) GLOBAL_UNCERTAINTY_ASSIGNED_CONTEXT ( ( #207 ) ) GLOBAL_UNIT_ASSIGNED_CONTEXT ( ( #209, #213, #217 ) ) REPRESENTATION_CONTEXT ( 'NONE', 'WORKASPACE' ) );
#201 = FACE_OUTER_BOUND ( 'NONE', #113, .T. ) ;
#202 = DIRECTION ( 'NONE',  ( -1.224606353822377500E-016, -1.000000000000000000, 0.0000000000000000000 ) ) ;
#203 = AXIS2_PLACEMENT_3D ( 'NONE', #212, #208, #197 ) ;
#204 = STYLED_ITEM ( 'NONE', ( #205 ), #97 ) ;
#205 = PRESENTATION_STYLE_ASSIGNMENT (( #206 ) ) ;
#206 = SURFACE_STYLE_USAGE ( .BOTH. , #194 ) ;
#207 = UNCERTAINTY_MEASURE_WITH_UNIT (LENGTH_MEASURE( 1.000000000000000100E-005 ), #209, 'distance_accuracy_value', 'NONE');
#208 = DIRECTION ( 'NONE',  ( -1.000000000000000000, 1.224606353822377300E-016, 0.0000000000000000000 ) ) ;
#209 =( LENGTH_UNIT ( ) NAMED_UNIT ( * ) SI_UNIT ( .MILLI., .METRE. ) );
#210 = MECHANICAL_DESIGN_GEOMETRIC_PRESENTATION_REPRESENTATION (  '', ( #204 ), #200 ) ;
#211 = PRESENTATION_LAYER_ASSIGNMENT (  '', '', ( #204 ) ) ;
#212 = CARTESIAN_POINT ( 'NONE',  ( 0.0000000000000000000, 0.0000000000000000000, -47.22778747693579500 ) ) ;
#213 =( NAMED_UNIT ( * ) PLANE_ANGLE_UNIT ( ) SI_UNIT ( $, .RADIAN. ) );
#214 = AXIS2_PLACEMENT_3D ( 'NONE', #219, #218, #202 ) ;
#215 = CIRCLE ( 'NONE', #214, 131.5600000000000000 ) ;
#216 = CIRCLE ( 'NONE', #203, 49.06000000000000200 ) ;
#217 =( NAMED_UNIT ( * ) SI_UNIT ( $, .STERADIAN. ) SOLID_ANGLE_UNIT ( ) );
#218 = DIRECTION ( 'NONE',  ( -1.000000000000000000, 1.224606353822377300E-016, 0.0000000000000000000 ) ) ;
#219 = CARTESIAN_POINT ( 'NONE',  ( 0.0000000000000000000, 0.0000000000000000000, -132.7777874769358000 ) ) ;
#220 =( LENGTH_UNIT ( ) NAMED_UNIT ( * ) SI_UNIT ( .MILLI., .METRE. ) );
#221 = MECHANICAL_DESIGN_GEOMETRIC_PRESENTATION_REPRESENTATION (  '', ( #223 ), #240 ) ;
#222 = PRESENTATION_LAYER_ASSIGNMENT (  '', '', ( #223 ) ) ;
#223 = STYLED_ITEM ( 'NONE', ( #227 ), #120 ) ;
#224 = CARTESIAN_POINT ( 'NONE',  ( 0.0000000000000000000, 0.0000000000000000000, -132.7777874769358000 ) ) ;
#225 = CARTESIAN_POINT ( 'NONE',  ( 0.0000000000000000000, 8.055460595443598600E-015, -1.217787476935794400 ) ) ;
#226 = CARTESIAN_POINT ( 'NONE',  ( 12.69999999999999900, 0.0000000000000000000, -1.832212523064202800 ) ) ;
#227 = PRESENTATION_STYLE_ASSIGNMENT (( #228 ) ) ;
#228 = SURFACE_STYLE_USAGE ( .BOTH. , #229 ) ;
#229 = SURFACE_SIDE_STYLE ('',( #230 ) ) ;
#230 = SURFACE_STYLE_FILL_AREA ( #231 ) ;
#231 = FILL_AREA_STYLE ('',( #242 ) ) ;
#232 = DIRECTION ( 'NONE',  ( 0.0000000000000000000, 0.0000000000000000000, -1.000000000000000000 ) ) ;
#233 = CIRCLE ( 'NONE', #235, 131.5600000000000000 ) ;
#234 = DIRECTION ( 'NONE',  ( 1.000000000000000000, -0.0000000000000000000, 0.0000000000000000000 ) ) ;
#235 = AXIS2_PLACEMENT_3D ( 'NONE', #224, #234, #232 ) ;
#236 =( NAMED_UNIT ( * ) SI_UNIT ( $, .STERADIAN. ) SOLID_ANGLE_UNIT ( ) );
#237 =( NAMED_UNIT ( * ) PLANE_ANGLE_UNIT ( ) SI_UNIT ( $, .RADIAN. ) );
#238 = CARTESIAN_POINT ( 'NONE',  ( 0.0000000000000000000, 12.69999999999989300, -1.832212523064189000 ) ) ;
#239 = CARTESIAN_POINT ( 'NONE',  ( -1.555250069354405900E-015, -12.69999999999989300, -1.832212523064189000 ) ) ;
#240 =( GEOMETRIC_REPRESENTATION_CONTEXT ( 3 ) GLOBAL_UNCERTAINTY_ASSIGNED_CONTEXT ( ( #241 ) ) GLOBAL_UNIT_ASSIGNED_CONTEXT ( ( #220, #237, #236 ) ) REPRESENTATION_CONTEXT ( 'NONE', 'WORKASPACE' ) );
#241 = UNCERTAINTY_MEASURE_WITH_UNIT (LENGTH_MEASURE( 1.000000000000000100E-005 ), #220, 'distance_accuracy_value', 'NONE');
#242 = FILL_AREA_STYLE_COLOUR ( '', #243 ) ;
#243 = COLOUR_RGB ( '',0.9568627450980391500, 0.9490196078431372100, 0.9607843137254902200 ) ;
#244 = FACE_OUTER_BOUND ( 'NONE', #119, .T. ) ;
#245 = LINE ( 'NONE', #278, #277 ) ;
#246 = SPHERICAL_SURFACE ( 'NONE', #260, 131.5600000000000000 ) ;
#247 = DIRECTION ( 'NONE',  ( 0.0000000000000000000, 1.000000000000000000, 0.0000000000000000000 ) ) ;
#248 = MECHANICAL_DESIGN_GEOMETRIC_PRESENTATION_REPRESENTATION (  '', ( #253 ), #274 ) ;
#249 = UNCERTAINTY_MEASURE_WITH_UNIT (LENGTH_MEASURE( 1.000000000000000100E-005 ), #275, 'distance_accuracy_value', 'NONE');
#250 = CARTESIAN_POINT ( 'NONE',  ( 12.70000000000000300, 0.0000000000000000000, 0.1599071283095599400 ) ) ;
#251 = CARTESIAN_POINT ( 'NONE',  ( -12.69999999999999900, 1.555250069354419100E-015, -1.832212523064202800 ) ) ;
#252 = CARTESIAN_POINT ( 'NONE',  ( 0.0000000000000000000, 0.0000000000000000000, -132.7777874769358000 ) ) ;
#253 = STYLED_ITEM ( 'NONE', ( #261 ), #122 ) ;
#254 = DIRECTION ( 'NONE',  ( -0.0000000000000000000, -0.0000000000000000000, 1.000000000000000000 ) ) ;
#255 = VECTOR ( 'NONE', #254, 1000.000000000000000 ) ;
#256 = CARTESIAN_POINT ( 'NONE',  ( -12.69999999999999900, 1.555250069354419100E-015, 9.212316277905259200 ) ) ;
#257 = LINE ( 'NONE', #256, #255 ) ;
#258 = DIRECTION ( 'NONE',  ( -1.000000000000000000, 0.0000000000000000000, 0.0000000000000000000 ) ) ;
#259 = PRESENTATION_LAYER_ASSIGNMENT (  '', '', ( #253 ) ) ;
#260 = AXIS2_PLACEMENT_3D ( 'NONE', #252, #258, #247 ) ;
#261 = PRESENTATION_STYLE_ASSIGNMENT (( #262 ) ) ;
#262 = SURFACE_STYLE_USAGE ( .BOTH. , #265 ) ;
#263 = COLOUR_RGB ( '',0.7960784313725489700, 0.8235294117647058400, 0.9372549019607843100 ) ;
#264 = CARTESIAN_POINT ( 'NONE',  ( 0.0000000000000000000, 12.70000000000000300, 0.1599071283095590800 ) ) ;
#265 = SURFACE_SIDE_STYLE ('',( #266 ) ) ;
#266 = SURFACE_STYLE_FILL_AREA ( #273 ) ;
#267 = DIRECTION ( 'NONE',  ( 1.000000000000000000, 0.0000000000000000000, 0.0000000000000000000 ) ) ;
#268 = DIRECTION ( 'NONE',  ( -0.0000000000000000000, -0.0000000000000000000, 1.000000000000000000 ) ) ;
#269 = AXIS2_PLACEMENT_3D ( 'NONE', #270, #268, #267 ) ;
#270 = CARTESIAN_POINT ( 'NONE',  ( 0.0000000000000000000, 0.0000000000000000000, -1.832212523064202800 ) ) ;
#271 = CIRCLE ( 'NONE', #269, 12.69999999999999900 ) ;
#272 =( NAMED_UNIT ( * ) PLANE_ANGLE_UNIT ( ) SI_UNIT ( $, .RADIAN. ) );
#273 = FILL_AREA_STYLE ('',( #279 ) ) ;
#274 =( GEOMETRIC_REPRESENTATION_CONTEXT ( 3 ) GLOBAL_UNCERTAINTY_ASSIGNED_CONTEXT ( ( #249 ) ) GLOBAL_UNIT_ASSIGNED_CONTEXT ( ( #275, #272, #280 ) ) REPRESENTATION_CONTEXT ( 'NONE', 'WORKASPACE' ) );
#275 =( LENGTH_UNIT ( ) NAMED_UNIT ( * ) SI_UNIT ( .MILLI., .METRE. ) );
#276 = DIRECTION ( 'NONE',  ( -0.0000000000000000000, -0.0000000000000000000, 1.000000000000000000 ) ) ;
#277 = VECTOR ( 'NONE', #276, 1000.000000000000000 ) ;
#278 = CARTESIAN_POINT ( 'NONE',  ( 12.69999999999999900, 0.0000000000000000000, 9.212316277905259200 ) ) ;
#279 = FILL_AREA_STYLE_COLOUR ( '', #263 ) ;
#280 =( NAMED_UNIT ( * ) SI_UNIT ( $, .STERADIAN. ) SOLID_ANGLE_UNIT ( ) );
#281 =( LENGTH_UNIT ( ) NAMED_UNIT ( * ) SI_UNIT ( .MILLI., .METRE. ) );
#282 = MECHANICAL_DESIGN_GEOMETRIC_PRESENTATION_REPRESENTATION (  '', ( #286 ), #133 ) ;
#283 = SURFACE_STYLE_FILL_AREA ( #284 ) ;
#284 = FILL_AREA_STYLE ('',( #291 ) ) ;
#285 = PRESENTATION_LAYER_ASSIGNMENT (  '', '', ( #286 ) ) ;
#286 = STYLED_ITEM ( 'NONE', ( #288 ), #147 ) ;
#287 = FACE_OUTER_BOUND ( 'NONE', #94, .T. ) ;
#288 = PRESENTATION_STYLE_ASSIGNMENT (( #289 ) ) ;
#289 = SURFACE_STYLE_USAGE ( .BOTH. , #290 ) ;
#290 = SURFACE_SIDE_STYLE ('',( #283 ) ) ;
#291 = FILL_AREA_STYLE_COLOUR ( '', #292 ) ;
#292 = COLOUR_RGB ( '',0.9568627450980391500, 0.9490196078431372100, 0.9607843137254902200 ) ;
#293 = CIRCLE ( 'NONE', #302, 12.70000000000000100 ) ;
#294 = PRESENTATION_STYLE_ASSIGNMENT (( #295 ) ) ;
#295 = SURFACE_STYLE_USAGE ( .BOTH. , #296 ) ;
#296 = SURFACE_SIDE_STYLE ('',( #297 ) ) ;
#297 = SURFACE_STYLE_FILL_AREA ( #298 ) ;
#298 = FILL_AREA_STYLE ('',( #299 ) ) ;
#299 = FILL_AREA_STYLE_COLOUR ( '', #300 ) ;
#300 = COLOUR_RGB ( '',0.9568627450980391500, 0.9490196078431372100, 0.9607843137254902200 ) ;
#301 = CARTESIAN_POINT ( 'NONE',  ( 0.0000000000000000000, 0.0000000000000000000, 0.1599071283095599400 ) ) ;
#302 = AXIS2_PLACEMENT_3D ( 'NONE', #301, #305, #304 ) ;
#303 = CIRCLE ( 'NONE', #310, 12.69999999999999900 ) ;
#304 = DIRECTION ( 'NONE',  ( 1.000000000000000000, 0.0000000000000000000, 0.0000000000000000000 ) ) ;
#305 = DIRECTION ( 'NONE',  ( -0.0000000000000000000, -0.0000000000000000000, 1.000000000000000000 ) ) ;
#306 = FACE_OUTER_BOUND ( 'NONE', #160, .T. ) ;
#307 = DIRECTION ( 'NONE',  ( 1.000000000000000000, 0.0000000000000000000, 0.0000000000000000000 ) ) ;
#308 = DIRECTION ( 'NONE',  ( -0.0000000000000000000, -0.0000000000000000000, 1.000000000000000000 ) ) ;
#309 = CARTESIAN_POINT ( 'NONE',  ( 0.0000000000000000000, 0.0000000000000000000, -1.832212523064202800 ) ) ;
#310 = AXIS2_PLACEMENT_3D ( 'NONE', #309, #308, #307 ) ;
#311 = CARTESIAN_POINT ( 'NONE',  ( 0.0000000000000000000, 0.0000000000000000000, -47.22778747693579500 ) ) ;
#312 = CARTESIAN_POINT ( 'NONE',  ( -12.70000000000000300, 1.555250069354419500E-015, 0.1599071283095599400 ) ) ;
#313 = SPHERICAL_SURFACE ( 'NONE', #322, 49.06000000000000200 ) ;
#314 = DIRECTION ( 'NONE',  ( -1.000000000000000000, 0.0000000000000000000, 0.0000000000000000000 ) ) ;
#315 =( NAMED_UNIT ( * ) SI_UNIT ( $, .STERADIAN. ) SOLID_ANGLE_UNIT ( ) );
#316 =( NAMED_UNIT ( * ) PLANE_ANGLE_UNIT ( ) SI_UNIT ( $, .RADIAN. ) );
#317 =( LENGTH_UNIT ( ) NAMED_UNIT ( * ) SI_UNIT ( .MILLI., .METRE. ) );
#318 = MECHANICAL_DESIGN_GEOMETRIC_PRESENTATION_REPRESENTATION (  '', ( #320 ), #135 ) ;
#319 = PRESENTATION_LAYER_ASSIGNMENT (  '', '', ( #320 ) ) ;
#320 = STYLED_ITEM ( 'NONE', ( #294 ), #155 ) ;
#321 = DIRECTION ( 'NONE',  ( 0.0000000000000000000, 1.000000000000000000, 0.0000000000000000000 ) ) ;
#322 = AXIS2_PLACEMENT_3D ( 'NONE', #311, #314, #321 ) ;
ENDSEC;
END-ISO-10303-21;
