ISO-10303-21;
HEADER;
FILE_DESCRIPTION (( 'STEP AP203' ),
    '1' );
FILE_NAME ('Web Model 68268_72502.step',
    '2017-04-12T16:07:02',
    ( '' ),
    ( '' ),
    'SwSTEP 2.0',
    'SolidWorks 2016',
    '' );
FILE_SCHEMA (( 'CONFIG_CONTROL_DESIGN' ));
ENDSEC;

DATA;
#1 = CC_DESIGN_PERSON_AND_ORGANIZATION_ASSIGNMENT ( #55, #80, ( #142 ) ) ;
#2 = DATE_AND_TIME ( #124, #9 ) ;
#3 = EDGE_CURVE ( 'NONE', #112, #198, #70, .T. ) ;
#4 = ORIENTED_EDGE ( 'NONE', *, *, #46, .F. ) ;
#5 = SECURITY_CLASSIFICATION_LEVEL ( 'unclassified' ) ;
#6 = DIRECTION ( 'NONE',  ( 0.0000000000000000000, 1.000000000000000000, 0.0000000000000000000 ) ) ;
#7 = CARTESIAN_POINT ( 'NONE',  ( -127.0000000000000900, 178.0000000000000300, 0.0000000000000000000 ) ) ;
#8 = LINE ( 'NONE', #99, #36 ) ;
#9 = LOCAL_TIME ( 12, 7, 2.000000000000000000, #162 ) ;
#10 = DIRECTION ( 'NONE',  ( 0.0000000000000000000, -0.0000000000000000000, 1.000000000000000000 ) ) ;
#11 = VECTOR ( 'NONE', #163, 1000.000000000000000 ) ;
#12 = DIRECTION ( 'NONE',  ( 1.000000000000000000, 0.0000000000000000000, 0.0000000000000000000 ) ) ;
#13 = VECTOR ( 'NONE', #65, 1000.000000000000000 ) ;
#14 = CC_DESIGN_PERSON_AND_ORGANIZATION_ASSIGNMENT ( #229, #133, ( #206 ) ) ;
#15 = LINE ( 'NONE', #179, #19 ) ;
#16 = ADVANCED_FACE ( 'NONE', ( #40 ), #44, .T. ) ;
#17 = VECTOR ( 'NONE', #202, 1000.000000000000000 ) ;
#18 = FACE_OUTER_BOUND ( 'NONE', #188, .T. ) ;
#19 = VECTOR ( 'NONE', #130, 1000.000000000000000 ) ;
#20 = ORIENTED_EDGE ( 'NONE', *, *, #26, .F. ) ;
#21 = CC_DESIGN_PERSON_AND_ORGANIZATION_ASSIGNMENT ( #233, #230, ( #228 ) ) ;
#22 = CARTESIAN_POINT ( 'NONE',  ( -127.0000000000000300, -177.9999999999999700, 0.0000000000000000000 ) ) ;
#23 = DIRECTION ( 'NONE',  ( 0.0000000000000000000, 0.0000000000000000000, 1.000000000000000000 ) ) ;
#24 = DIRECTION ( 'NONE',  ( 1.559302000878029000E-016, -1.000000000000000000, 0.0000000000000000000 ) ) ;
#25 = CARTESIAN_POINT ( 'NONE',  ( 126.9999999999999100, 178.0000000000000300, 0.0000000000000000000 ) ) ;
#26 = EDGE_CURVE ( 'NONE', #171, #198, #8, .T. ) ;
#27 = DIRECTION ( 'NONE',  ( 1.000000000000000000, 0.0000000000000000000, 0.0000000000000000000 ) ) ;
#28 = ORIENTED_EDGE ( 'NONE', *, *, #222, .T. ) ;
#29 = CARTESIAN_POINT ( 'NONE',  ( -127.0000000000000900, 178.0000000000000300, 3.000000000000000000 ) ) ;
#30 = PERSON ( 'UNSPECIFIED', 'UNSPECIFIED', 'UNSPECIFIED', ('UNSPECIFIED'), ('UNSPECIFIED'), ('UNSPECIFIED') ) ;
#31 = DIRECTION ( 'NONE',  ( -1.000000000000000000, -0.0000000000000000000, -0.0000000000000000000 ) ) ;
#32 = CC_DESIGN_APPROVAL ( #84, ( #142 ) ) ;
#33 = EDGE_LOOP ( 'NONE', ( #75, #161, #4, #28 ) ) ;
#34 = LINE ( 'NONE', #128, #11 ) ;
#35 = DIRECTION ( 'NONE',  ( -0.0000000000000000000, -0.0000000000000000000, -1.000000000000000000 ) ) ;
#36 = VECTOR ( 'NONE', #35, 1000.000000000000000 ) ;
#37 = CARTESIAN_POINT ( 'NONE',  ( -127.0000000000000300, -177.9999999999999700, 3.000000000000000000 ) ) ;
#38 = APPROVAL_ROLE ( '' ) ;
#39 = APPROVAL_ROLE ( '' ) ;
#40 = FACE_OUTER_BOUND ( 'NONE', #73, .T. ) ;
#41 = APPLICATION_PROTOCOL_DEFINITION ( 'international standard', 'config_control_design', 1994, #79 ) ;
#42 = LOCAL_TIME ( 12, 7, 2.000000000000000000, #67 ) ;
#43 = APPROVAL_PERSON_ORGANIZATION ( #204, #209, #39 ) ;
#44 = PLANE ( 'NONE',  #88 ) ;
#45 = DIRECTION ( 'NONE',  ( -0.0000000000000000000, -0.0000000000000000000, -1.000000000000000000 ) ) ;
#46 = EDGE_CURVE ( 'NONE', #149, #154, #15, .T. ) ;
#47 = ORIENTED_EDGE ( 'NONE', *, *, #227, .T. ) ;
#48 = AXIS2_PLACEMENT_3D ( 'NONE', #29, #58, #63 ) ;
#49 = UNCERTAINTY_MEASURE_WITH_UNIT (LENGTH_MEASURE( 1.000000000000000100E-005 ), #86, 'distance_accuracy_value', 'NONE');
#50 = ORIENTED_EDGE ( 'NONE', *, *, #221, .T. ) ;
#51 = VECTOR ( 'NONE', #226, 1000.000000000000000 ) ;
#52 = MANIFOLD_SOLID_BREP ( 'Extrude1', #56 ) ;
#53 = CC_DESIGN_SECURITY_CLASSIFICATION ( #142, ( #206 ) ) ;
#54 = ORIENTED_EDGE ( 'NONE', *, *, #227, .F. ) ;
#55 = PERSON_AND_ORGANIZATION ( #30, #213 ) ;
#56 = CLOSED_SHELL ( 'NONE', ( #92, #172, #236, #155, #16, #138 ) ) ;
#57 = VERTEX_POINT ( 'NONE', #111 ) ;
#58 = DIRECTION ( 'NONE',  ( 0.0000000000000000000, -1.000000000000000000, 0.0000000000000000000 ) ) ;
#59 = CARTESIAN_POINT ( 'NONE',  ( 126.9999999999999700, -177.9999999999999700, 3.000000000000000000 ) ) ;
#60 = AXIS2_PLACEMENT_3D ( 'NONE', #22, #169, #27 ) ;
#61 = APPROVAL_STATUS ( 'not_yet_approved' ) ;
#62 = LINE ( 'NONE', #97, #91 ) ;
#63 = DIRECTION ( 'NONE',  ( 0.0000000000000000000, -0.0000000000000000000, -1.000000000000000000 ) ) ;
#64 = EDGE_CURVE ( 'NONE', #171, #149, #197, .T. ) ;
#65 = DIRECTION ( 'NONE',  ( 1.000000000000000000, 0.0000000000000000000, 0.0000000000000000000 ) ) ;
#66 = ORIENTED_EDGE ( 'NONE', *, *, #46, .T. ) ;
#67 = COORDINATED_UNIVERSAL_TIME_OFFSET ( 5, 0, .BEHIND. ) ;
#68 = APPLICATION_PROTOCOL_DEFINITION ( 'international standard', 'config_control_design', 1994, #144 ) ;
#69 = DIRECTION ( 'NONE',  ( 1.559302000878029000E-016, -1.000000000000000000, 0.0000000000000000000 ) ) ;
#70 = LINE ( 'NONE', #166, #164 ) ;
#71 = SHAPE_DEFINITION_REPRESENTATION ( #234, #156 ) ;
#72 = APPROVAL_PERSON_ORGANIZATION ( #191, #84, #38 ) ;
#73 = EDGE_LOOP ( 'NONE', ( #103, #66, #76, #219 ) ) ;
#74 = CC_DESIGN_PERSON_AND_ORGANIZATION_ASSIGNMENT ( #136, #120, ( #101 ) ) ;
#75 = ORIENTED_EDGE ( 'NONE', *, *, #89, .T. ) ;
#76 = ORIENTED_EDGE ( 'NONE', *, *, #107, .T. ) ;
#77 = DIRECTION ( 'NONE',  ( -0.0000000000000000000, 0.0000000000000000000, 1.000000000000000000 ) ) ;
#78 = PERSON_AND_ORGANIZATION ( #30, #213 ) ;
#79 = APPLICATION_CONTEXT ( 'configuration controlled 3d designs of mechanical parts and assemblies' ) ;
#80 = PERSON_AND_ORGANIZATION_ROLE ( 'classification_officer' ) ;
#81 = CARTESIAN_POINT ( 'NONE',  ( -127.0000000000000300, -177.9999999999999700, 3.000000000000000000 ) ) ;
#82 = LINE ( 'NONE', #59, #140 ) ;
#83 = ORIENTED_EDGE ( 'NONE', *, *, #235, .T. ) ;
#84 = APPROVAL ( #143, 'UNSPECIFIED' ) ;
#85 = CARTESIAN_POINT ( 'NONE',  ( 126.9999999999999100, 178.0000000000000300, 0.0000000000000000000 ) ) ;
#86 =( LENGTH_UNIT ( ) NAMED_UNIT ( * ) SI_UNIT ( .MILLI., .METRE. ) );
#87 = EDGE_CURVE ( 'NONE', #57, #112, #106, .T. ) ;
#88 = AXIS2_PLACEMENT_3D ( 'NONE', #108, #77, #102 ) ;
#89 = EDGE_CURVE ( 'NONE', #114, #57, #148, .T. ) ;
#90 = DATE_AND_TIME ( #131, #196 ) ;
#91 = VECTOR ( 'NONE', #24, 1000.000000000000000 ) ;
#92 = ADVANCED_FACE ( 'NONE', ( #158 ), #192, .F. ) ;
#93 = EDGE_LOOP ( 'NONE', ( #54, #220, #147, #214 ) ) ;
#94 = AXIS2_PLACEMENT_3D ( 'NONE', #189, #6, #10 ) ;
#95 = COORDINATED_UNIVERSAL_TIME_OFFSET ( 5, 0, .BEHIND. ) ;
#96 =( GEOMETRIC_REPRESENTATION_CONTEXT ( 3 ) GLOBAL_UNCERTAINTY_ASSIGNED_CONTEXT ( ( #49 ) ) GLOBAL_UNIT_ASSIGNED_CONTEXT ( ( #86, #105, #165 ) ) REPRESENTATION_CONTEXT ( 'NONE', 'WORKASPACE' ) );
#97 = CARTESIAN_POINT ( 'NONE',  ( -127.0000000000000900, 178.0000000000000300, 0.0000000000000000000 ) ) ;
#98 = COORDINATED_UNIVERSAL_TIME_OFFSET ( 5, 0, .BEHIND. ) ;
#99 = CARTESIAN_POINT ( 'NONE',  ( -127.0000000000000900, 178.0000000000000300, 3.000000000000000000 ) ) ;
#100 = ORIENTED_EDGE ( 'NONE', *, *, #107, .F. ) ;
#101 = PRODUCT_DEFINITION ( 'UNKNOWN', '', #206, #199 ) ;
#102 = DIRECTION ( 'NONE',  ( 1.000000000000000000, 0.0000000000000000000, 0.0000000000000000000 ) ) ;
#103 = ORIENTED_EDGE ( 'NONE', *, *, #64, .T. ) ;
#104 = VECTOR ( 'NONE', #116, 1000.000000000000000 ) ;
#105 =( NAMED_UNIT ( * ) PLANE_ANGLE_UNIT ( ) SI_UNIT ( $, .RADIAN. ) );
#106 = LINE ( 'NONE', #25, #104 ) ;
#107 = EDGE_CURVE ( 'NONE', #154, #126, #34, .T. ) ;
#108 = CARTESIAN_POINT ( 'NONE',  ( -127.0000000000000300, -177.9999999999999700, 3.000000000000000000 ) ) ;
#109 = APPROVAL_DATE_TIME ( #2, #84 ) ;
#110 = CC_DESIGN_DATE_AND_TIME_ASSIGNMENT ( #141, #150, ( #101 ) ) ;
#111 = CARTESIAN_POINT ( 'NONE',  ( 126.9999999999999700, -177.9999999999999700, 0.0000000000000000000 ) ) ;
#112 = VERTEX_POINT ( 'NONE', #85 ) ;
#113 = DIRECTION ( 'NONE',  ( 1.559302000878029000E-016, -1.000000000000000000, 0.0000000000000000000 ) ) ;
#114 = VERTEX_POINT ( 'NONE', #224 ) ;
#115 = CARTESIAN_POINT ( 'NONE',  ( 126.9999999999999100, 178.0000000000000300, 3.000000000000000000 ) ) ;
#116 = DIRECTION ( 'NONE',  ( -1.559302000878029000E-016, 1.000000000000000000, -0.0000000000000000000 ) ) ;
#117 = LOCAL_TIME ( 12, 7, 2.000000000000000000, #95 ) ;
#118 = ORIENTED_EDGE ( 'NONE', *, *, #3, .T. ) ;
#119 = APPROVAL_STATUS ( 'not_yet_approved' ) ;
#120 = PERSON_AND_ORGANIZATION_ROLE ( 'creator' ) ;
#121 = AXIS2_PLACEMENT_3D ( 'NONE', #170, #23, #12 ) ;
#122 = DIRECTION ( 'NONE',  ( -1.000000000000000000, -1.559302000878029000E-016, 0.0000000000000000000 ) ) ;
#123 = CALENDAR_DATE ( 2017, 12, 4 ) ;
#124 = CALENDAR_DATE ( 2017, 12, 4 ) ;
#125 = CC_DESIGN_APPROVAL ( #216, ( #206 ) ) ;
#126 = VERTEX_POINT ( 'NONE', #115 ) ;
#127 = CARTESIAN_POINT ( 'NONE',  ( 126.9999999999999100, 178.0000000000000300, 3.000000000000000000 ) ) ;
#128 = CARTESIAN_POINT ( 'NONE',  ( 126.9999999999999100, 178.0000000000000300, 3.000000000000000000 ) ) ;
#129 = COORDINATED_UNIVERSAL_TIME_OFFSET ( 5, 0, .BEHIND. ) ;
#130 = DIRECTION ( 'NONE',  ( 1.000000000000000000, 0.0000000000000000000, 0.0000000000000000000 ) ) ;
#131 = CALENDAR_DATE ( 2017, 12, 4 ) ;
#132 = APPROVAL_DATE_TIME ( #157, #216 ) ;
#133 = PERSON_AND_ORGANIZATION_ROLE ( 'design_supplier' ) ;
#134 = PLANE ( 'NONE',  #94 ) ;
#135 = PERSON_AND_ORGANIZATION_ROLE ( 'creator' ) ;
#136 = PERSON_AND_ORGANIZATION ( #30, #213 ) ;
#137 = ORIENTED_EDGE ( 'NONE', *, *, #64, .F. ) ;
#138 = ADVANCED_FACE ( 'NONE', ( #225 ), #167, .F. ) ;
#139 = CC_DESIGN_APPROVAL ( #209, ( #101 ) ) ;
#140 = VECTOR ( 'NONE', #151, 1000.000000000000000 ) ;
#141 = DATE_AND_TIME ( #215, #175 ) ;
#142 = SECURITY_CLASSIFICATION ( '', '', #5 ) ;
#143 = APPROVAL_STATUS ( 'not_yet_approved' ) ;
#144 = APPLICATION_CONTEXT ( 'configuration controlled 3d designs of mechanical parts and assemblies' ) ;
#145 = EDGE_LOOP ( 'NONE', ( #47, #159, #137, #200 ) ) ;
#146 = CARTESIAN_POINT ( 'NONE',  ( -127.0000000000000900, 178.0000000000000300, 3.000000000000000000 ) ) ;
#147 = ORIENTED_EDGE ( 'NONE', *, *, #87, .F. ) ;
#148 = LINE ( 'NONE', #182, #13 ) ;
#149 = VERTEX_POINT ( 'NONE', #81 ) ;
#150 = DATE_TIME_ROLE ( 'creation_date' ) ;
#151 = DIRECTION ( 'NONE',  ( -0.0000000000000000000, -0.0000000000000000000, -1.000000000000000000 ) ) ;
#152 = VECTOR ( 'NONE', #45, 1000.000000000000000 ) ;
#153 = PLANE ( 'NONE',  #201 ) ;
#154 = VERTEX_POINT ( 'NONE', #223 ) ;
#155 = ADVANCED_FACE ( 'NONE', ( #217 ), #205, .F. ) ;
#156 = ADVANCED_BREP_SHAPE_REPRESENTATION ( 'Web Model 68268_72502', ( #52, #121 ), #96 ) ;
#157 = DATE_AND_TIME ( #123, #42 ) ;
#158 = FACE_OUTER_BOUND ( 'NONE', #145, .T. ) ;
#159 = ORIENTED_EDGE ( 'NONE', *, *, #222, .F. ) ;
#160 = LINE ( 'NONE', #180, #17 ) ;
#161 = ORIENTED_EDGE ( 'NONE', *, *, #221, .F. ) ;
#162 = COORDINATED_UNIVERSAL_TIME_OFFSET ( 5, 0, .BEHIND. ) ;
#163 = DIRECTION ( 'NONE',  ( -1.559302000878029000E-016, 1.000000000000000000, -0.0000000000000000000 ) ) ;
#164 = VECTOR ( 'NONE', #31, 1000.000000000000000 ) ;
#165 =( NAMED_UNIT ( * ) SI_UNIT ( $, .STERADIAN. ) SOLID_ANGLE_UNIT ( ) );
#166 = CARTESIAN_POINT ( 'NONE',  ( -127.0000000000000900, 178.0000000000000300, 0.0000000000000000000 ) ) ;
#167 = PLANE ( 'NONE',  #60 ) ;
#168 = AXIS2_PLACEMENT_3D ( 'NONE', #208, #186, #203 ) ;
#169 = DIRECTION ( 'NONE',  ( -0.0000000000000000000, 0.0000000000000000000, 1.000000000000000000 ) ) ;
#170 = CARTESIAN_POINT ( 'NONE',  ( 0.0000000000000000000, 0.0000000000000000000, 0.0000000000000000000 ) ) ;
#171 = VERTEX_POINT ( 'NONE', #146 ) ;
#172 = ADVANCED_FACE ( 'NONE', ( #193 ), #134, .F. ) ;
#173 = APPROVAL_DATE_TIME ( #90, #209 ) ;
#174 = LINE ( 'NONE', #37, #152 ) ;
#175 = LOCAL_TIME ( 12, 7, 2.000000000000000000, #98 ) ;
#176 = APPROVAL_PERSON_ORGANIZATION ( #177, #216, #207 ) ;
#177 = PERSON_AND_ORGANIZATION ( #30, #213 ) ;
#178 = ORIENTED_EDGE ( 'NONE', *, *, #235, .F. ) ;
#179 = CARTESIAN_POINT ( 'NONE',  ( -127.0000000000000300, -177.9999999999999700, 3.000000000000000000 ) ) ;
#180 = CARTESIAN_POINT ( 'NONE',  ( 126.9999999999999100, 178.0000000000000300, 3.000000000000000000 ) ) ;
#181 = PRODUCT_RELATED_PRODUCT_CATEGORY ( 'detail', '', ( #228 ) ) ;
#182 = CARTESIAN_POINT ( 'NONE',  ( -127.0000000000000300, -177.9999999999999700, 0.0000000000000000000 ) ) ;
#183 = EDGE_LOOP ( 'NONE', ( #118, #20, #195, #83 ) ) ;
#184 = DATE_TIME_ROLE ( 'classification_date' ) ;
#185 = EDGE_CURVE ( 'NONE', #126, #171, #232, .T. ) ;
#186 = DIRECTION ( 'NONE',  ( 1.000000000000000000, 1.559302000878029000E-016, -0.0000000000000000000 ) ) ;
#187 = CC_DESIGN_PERSON_AND_ORGANIZATION_ASSIGNMENT ( #78, #135, ( #206 ) ) ;
#188 = EDGE_LOOP ( 'NONE', ( #231, #178, #100, #50 ) ) ;
#189 = CARTESIAN_POINT ( 'NONE',  ( -127.0000000000000300, -177.9999999999999700, 3.000000000000000000 ) ) ;
#190 = CARTESIAN_POINT ( 'NONE',  ( -127.0000000000000900, 178.0000000000000300, 3.000000000000000000 ) ) ;
#191 = PERSON_AND_ORGANIZATION ( #30, #213 ) ;
#192 = PLANE ( 'NONE',  #168 ) ;
#193 = FACE_OUTER_BOUND ( 'NONE', #33, .T. ) ;
#194 = CALENDAR_DATE ( 2017, 12, 4 ) ;
#195 = ORIENTED_EDGE ( 'NONE', *, *, #185, .F. ) ;
#196 = LOCAL_TIME ( 12, 7, 2.000000000000000000, #129 ) ;
#197 = LINE ( 'NONE', #190, #237 ) ;
#198 = VERTEX_POINT ( 'NONE', #7 ) ;
#199 = DESIGN_CONTEXT ( 'detailed design', #144, 'design' ) ;
#200 = ORIENTED_EDGE ( 'NONE', *, *, #26, .T. ) ;
#201 = AXIS2_PLACEMENT_3D ( 'NONE', #127, #122, #113 ) ;
#202 = DIRECTION ( 'NONE',  ( -0.0000000000000000000, -0.0000000000000000000, -1.000000000000000000 ) ) ;
#203 = DIRECTION ( 'NONE',  ( -1.559302000878029000E-016, 1.000000000000000000, 0.0000000000000000000 ) ) ;
#204 = PERSON_AND_ORGANIZATION ( #30, #213 ) ;
#205 = PLANE ( 'NONE',  #48 ) ;
#206 = PRODUCT_DEFINITION_FORMATION_WITH_SPECIFIED_SOURCE ( 'ANY', '', #228, .NOT_KNOWN. ) ;
#207 = APPROVAL_ROLE ( '' ) ;
#208 = CARTESIAN_POINT ( 'NONE',  ( -127.0000000000000900, 178.0000000000000300, 3.000000000000000000 ) ) ;
#209 = APPROVAL ( #61, 'UNSPECIFIED' ) ;
#210 = CARTESIAN_POINT ( 'NONE',  ( -127.0000000000000900, 178.0000000000000300, 3.000000000000000000 ) ) ;
#211 = MECHANICAL_CONTEXT ( 'NONE', #79, 'mechanical' ) ;
#212 = DATE_AND_TIME ( #194, #117 ) ;
#213 = ORGANIZATION ( 'UNSPECIFIED', 'UNSPECIFIED', '' ) ;
#214 = ORIENTED_EDGE ( 'NONE', *, *, #89, .F. ) ;
#215 = CALENDAR_DATE ( 2017, 12, 4 ) ;
#216 = APPROVAL ( #119, 'UNSPECIFIED' ) ;
#217 = FACE_OUTER_BOUND ( 'NONE', #183, .T. ) ;
#218 = CC_DESIGN_DATE_AND_TIME_ASSIGNMENT ( #212, #184, ( #142 ) ) ;
#219 = ORIENTED_EDGE ( 'NONE', *, *, #185, .T. ) ;
#220 = ORIENTED_EDGE ( 'NONE', *, *, #3, .F. ) ;
#221 = EDGE_CURVE ( 'NONE', #154, #57, #82, .T. ) ;
#222 = EDGE_CURVE ( 'NONE', #149, #114, #174, .T. ) ;
#223 = CARTESIAN_POINT ( 'NONE',  ( 126.9999999999999700, -177.9999999999999700, 3.000000000000000000 ) ) ;
#224 = CARTESIAN_POINT ( 'NONE',  ( -127.0000000000000300, -177.9999999999999700, 0.0000000000000000000 ) ) ;
#225 = FACE_OUTER_BOUND ( 'NONE', #93, .T. ) ;
#226 = DIRECTION ( 'NONE',  ( -1.000000000000000000, -0.0000000000000000000, -0.0000000000000000000 ) ) ;
#227 = EDGE_CURVE ( 'NONE', #198, #114, #62, .T. ) ;
#228 = PRODUCT ( 'Web Model 68268_72502', 'Web Model 68268_72502', '', ( #211 ) ) ;
#229 = PERSON_AND_ORGANIZATION ( #30, #213 ) ;
#230 = PERSON_AND_ORGANIZATION_ROLE ( 'design_owner' ) ;
#231 = ORIENTED_EDGE ( 'NONE', *, *, #87, .T. ) ;
#232 = LINE ( 'NONE', #210, #51 ) ;
#233 = PERSON_AND_ORGANIZATION ( #30, #213 ) ;
#234 = PRODUCT_DEFINITION_SHAPE ( 'NONE', 'NONE',  #101 ) ;
#235 = EDGE_CURVE ( 'NONE', #126, #112, #160, .T. ) ;
#236 = ADVANCED_FACE ( 'NONE', ( #18 ), #153, .F. ) ;
#237 = VECTOR ( 'NONE', #69, 1000.000000000000000 ) ;
ENDSEC;
END-ISO-10303-21;
