ISO-10303-21;
HEADER;
FILE_DESCRIPTION (( 'STEP AP203' ),
    '1' );
FILE_NAME ('Web Model 64402MX_43740.step',
    '2017-10-30T13:10:33',
    ( '' ),
    ( '' ),
    'SwSTEP 2.0',
    'SolidWorks 2016',
    '' );
FILE_SCHEMA (( 'CONFIG_CONTROL_DESIGN' ));
ENDSEC;

DATA;
#1 = ADVANCED_FACE ( 'NONE', ( #94 ), #8, .F. ) ;
#2 = VERTEX_POINT ( 'NONE', #24 ) ;
#3 = CC_DESIGN_DATE_AND_TIME_ASSIGNMENT ( #183, #190, ( #217 ) ) ;
#4 = APPROVAL_DATE_TIME ( #98, #48 ) ;
#5 = EDGE_CURVE ( 'NONE', #158, #2, #165, .T. ) ;
#6 = VECTOR ( 'NONE', #103, 1000.000000000000000 ) ;
#7 = ORIENTED_EDGE ( 'NONE', *, *, #195, .F. ) ;
#8 = PLANE ( 'NONE',  #232 ) ;
#9 = PRODUCT_RELATED_PRODUCT_CATEGORY ( 'detail', '', ( #93 ) ) ;
#10 = ORIENTED_EDGE ( 'NONE', *, *, #184, .T. ) ;
#11 = DESIGN_CONTEXT ( 'detailed design', #28, 'design' ) ;
#12 = PLANE ( 'NONE',  #50 ) ;
#13 = DATE_TIME_ROLE ( 'classification_date' ) ;
#14 = LINE ( 'NONE', #213, #6 ) ;
#15 = CARTESIAN_POINT ( 'NONE',  ( 12.49999999999999800, -12.49999999999999600, 4.750000000000000000 ) ) ;
#16 = DIRECTION ( 'NONE',  ( -0.0000000000000000000, -0.0000000000000000000, -1.000000000000000000 ) ) ;
#17 = CARTESIAN_POINT ( 'NONE',  ( 12.49999999999999800, 12.50000000000000400, 4.750000000000000000 ) ) ;
#18 = CALENDAR_DATE ( 2017, 30, 10 ) ;
#19 = AXIS2_PLACEMENT_3D ( 'NONE', #17, #27, #106 ) ;
#20 = ORIENTED_EDGE ( 'NONE', *, *, #228, .F. ) ;
#21 = COORDINATED_UNIVERSAL_TIME_OFFSET ( 5, 0, .BEHIND. ) ;
#22 = LINE ( 'NONE', #137, #38 ) ;
#23 = EDGE_LOOP ( 'NONE', ( #152, #7, #49, #70 ) ) ;
#24 = CARTESIAN_POINT ( 'NONE',  ( -12.50000000000000200, -12.50000000000000000, -4.750000000000000000 ) ) ;
#25 = APPROVAL_STATUS ( 'not_yet_approved' ) ;
#26 = MECHANICAL_CONTEXT ( 'NONE', #130, 'mechanical' ) ;
#27 = DIRECTION ( 'NONE',  ( 1.387778780781445700E-016, -1.000000000000000000, 0.0000000000000000000 ) ) ;
#28 = APPLICATION_CONTEXT ( 'configuration controlled 3d designs of mechanical parts and assemblies' ) ;
#29 = APPROVAL_DATE_TIME ( #80, #132 ) ;
#30 = CARTESIAN_POINT ( 'NONE',  ( -12.50000000000000200, -12.50000000000000000, 4.750000000000000000 ) ) ;
#31 = SECURITY_CLASSIFICATION ( '', '', #79 ) ;
#32 = ORIENTED_EDGE ( 'NONE', *, *, #37, .F. ) ;
#33 = APPROVAL_PERSON_ORGANIZATION ( #188, #132, #177 ) ;
#34 =( GEOMETRIC_REPRESENTATION_CONTEXT ( 3 ) GLOBAL_UNCERTAINTY_ASSIGNED_CONTEXT ( ( #36 ) ) GLOBAL_UNIT_ASSIGNED_CONTEXT ( ( #224, #170, #63 ) ) REPRESENTATION_CONTEXT ( 'NONE', 'WORKASPACE' ) );
#35 = COORDINATED_UNIVERSAL_TIME_OFFSET ( 5, 0, .BEHIND. ) ;
#36 = UNCERTAINTY_MEASURE_WITH_UNIT (LENGTH_MEASURE( 1.000000000000000100E-005 ), #224, 'distance_accuracy_value', 'NONE');
#37 = EDGE_CURVE ( 'NONE', #166, #96, #115, .T. ) ;
#38 = VECTOR ( 'NONE', #178, 1000.000000000000000 ) ;
#39 = PRODUCT_DEFINITION_FORMATION_WITH_SPECIFIED_SOURCE ( 'ANY', '', #93, .NOT_KNOWN. ) ;
#40 = CLOSED_SHELL ( 'NONE', ( #1, #72, #53, #221, #52, #89 ) ) ;
#41 = APPROVAL_ROLE ( '' ) ;
#42 = PLANE ( 'NONE',  #112 ) ;
#43 = DIRECTION ( 'NONE',  ( 0.0000000000000000000, -0.0000000000000000000, 1.000000000000000000 ) ) ;
#44 = DIRECTION ( 'NONE',  ( 1.000000000000000000, 0.0000000000000000000, 0.0000000000000000000 ) ) ;
#45 = MANIFOLD_SOLID_BREP ( 'Boss-Extrude1', #40 ) ;
#46 = VECTOR ( 'NONE', #136, 1000.000000000000000 ) ;
#47 = VERTEX_POINT ( 'NONE', #64 ) ;
#48 = APPROVAL ( #135, 'UNSPECIFIED' ) ;
#49 = ORIENTED_EDGE ( 'NONE', *, *, #214, .F. ) ;
#50 = AXIS2_PLACEMENT_3D ( 'NONE', #78, #82, #231 ) ;
#51 = VECTOR ( 'NONE', #157, 1000.000000000000000 ) ;
#52 = ADVANCED_FACE ( 'NONE', ( #159 ), #210, .T. ) ;
#53 = ADVANCED_FACE ( 'NONE', ( #181 ), #42, .F. ) ;
#54 = PERSON_AND_ORGANIZATION ( #226, #65 ) ;
#55 = ORIENTED_EDGE ( 'NONE', *, *, #5, .F. ) ;
#56 = PERSON_AND_ORGANIZATION_ROLE ( 'creator' ) ;
#57 = VECTOR ( 'NONE', #16, 1000.000000000000000 ) ;
#58 = CARTESIAN_POINT ( 'NONE',  ( 12.49999999999999800, 12.50000000000000400, -4.750000000000000000 ) ) ;
#59 = CC_DESIGN_PERSON_AND_ORGANIZATION_ASSIGNMENT ( #74, #101, ( #31 ) ) ;
#60 = CARTESIAN_POINT ( 'NONE',  ( -12.50000000000000200, 12.50000000000000000, -4.750000000000000000 ) ) ;
#61 = APPLICATION_PROTOCOL_DEFINITION ( 'international standard', 'config_control_design', 1994, #130 ) ;
#62 = DIRECTION ( 'NONE',  ( -1.000000000000000000, -1.387778780781445700E-016, 0.0000000000000000000 ) ) ;
#63 =( NAMED_UNIT ( * ) SI_UNIT ( $, .STERADIAN. ) SOLID_ANGLE_UNIT ( ) );
#64 = CARTESIAN_POINT ( 'NONE',  ( -12.50000000000000200, -12.50000000000000000, 4.750000000000000000 ) ) ;
#65 = ORGANIZATION ( 'UNSPECIFIED', 'UNSPECIFIED', '' ) ;
#66 = DIRECTION ( 'NONE',  ( -1.000000000000000000, 0.0000000000000000000, 0.0000000000000000000 ) ) ;
#67 = ORIENTED_EDGE ( 'NONE', *, *, #37, .T. ) ;
#68 = CC_DESIGN_PERSON_AND_ORGANIZATION_ASSIGNMENT ( #54, #76, ( #93 ) ) ;
#69 = DIRECTION ( 'NONE',  ( 0.0000000000000000000, 1.000000000000000000, 0.0000000000000000000 ) ) ;
#70 = ORIENTED_EDGE ( 'NONE', *, *, #187, .T. ) ;
#71 = LOCAL_TIME ( 9, 10, 33.00000000000000000, #236 ) ;
#72 = ADVANCED_FACE ( 'NONE', ( #81 ), #175, .F. ) ;
#73 = EDGE_CURVE ( 'NONE', #96, #144, #111, .T. ) ;
#74 = PERSON_AND_ORGANIZATION ( #226, #65 ) ;
#75 = FACE_OUTER_BOUND ( 'NONE', #171, .T. ) ;
#76 = PERSON_AND_ORGANIZATION_ROLE ( 'design_owner' ) ;
#77 = CARTESIAN_POINT ( 'NONE',  ( 12.49999999999999800, -12.49999999999999600, 4.750000000000000000 ) ) ;
#78 = CARTESIAN_POINT ( 'NONE',  ( 0.0000000000000000000, 0.0000000000000000000, -4.750000000000000000 ) ) ;
#79 = SECURITY_CLASSIFICATION_LEVEL ( 'unclassified' ) ;
#80 = DATE_AND_TIME ( #229, #168 ) ;
#81 = FACE_OUTER_BOUND ( 'NONE', #131, .T. ) ;
#82 = DIRECTION ( 'NONE',  ( 0.0000000000000000000, -0.0000000000000000000, 1.000000000000000000 ) ) ;
#83 = CC_DESIGN_PERSON_AND_ORGANIZATION_ASSIGNMENT ( #142, #56, ( #217 ) ) ;
#84 = CARTESIAN_POINT ( 'NONE',  ( 0.0000000000000000000, 0.0000000000000000000, 4.750000000000000000 ) ) ;
#85 = VECTOR ( 'NONE', #124, 1000.000000000000000 ) ;
#86 = VERTEX_POINT ( 'NONE', #196 ) ;
#87 = CC_DESIGN_DATE_AND_TIME_ASSIGNMENT ( #114, #13, ( #31 ) ) ;
#88 = VECTOR ( 'NONE', #69, 1000.000000000000000 ) ;
#89 = ADVANCED_FACE ( 'NONE', ( #75 ), #12, .F. ) ;
#90 = ORIENTED_EDGE ( 'NONE', *, *, #5, .T. ) ;
#91 = LINE ( 'NONE', #30, #233 ) ;
#92 = CC_DESIGN_PERSON_AND_ORGANIZATION_ASSIGNMENT ( #126, #95, ( #39 ) ) ;
#93 = PRODUCT ( 'Web Model 64402MX_43740', 'Web Model 64402MX_43740', '', ( #26 ) ) ;
#94 = FACE_OUTER_BOUND ( 'NONE', #108, .T. ) ;
#95 = PERSON_AND_ORGANIZATION_ROLE ( 'design_supplier' ) ;
#96 = VERTEX_POINT ( 'NONE', #151 ) ;
#97 = PLANE ( 'NONE',  #19 ) ;
#98 = DATE_AND_TIME ( #18, #176 ) ;
#99 = APPROVAL ( #25, 'UNSPECIFIED' ) ;
#100 = ORIENTED_EDGE ( 'NONE', *, *, #73, .F. ) ;
#101 = PERSON_AND_ORGANIZATION_ROLE ( 'classification_officer' ) ;
#102 = EDGE_CURVE ( 'NONE', #47, #2, #223, .T. ) ;
#103 = DIRECTION ( 'NONE',  ( -0.0000000000000000000, -0.0000000000000000000, -1.000000000000000000 ) ) ;
#104 = DIRECTION ( 'NONE',  ( 1.000000000000000000, 1.387778780781445700E-016, -0.0000000000000000000 ) ) ;
#105 = CC_DESIGN_PERSON_AND_ORGANIZATION_ASSIGNMENT ( #123, #117, ( #39 ) ) ;
#106 = DIRECTION ( 'NONE',  ( 1.000000000000000000, 1.387778780781445700E-016, 0.0000000000000000000 ) ) ;
#107 = VECTOR ( 'NONE', #104, 1000.000000000000000 ) ;
#108 = EDGE_LOOP ( 'NONE', ( #90, #180, #113, #200 ) ) ;
#109 = AXIS2_PLACEMENT_3D ( 'NONE', #15, #179, #62 ) ;
#110 = ADVANCED_BREP_SHAPE_REPRESENTATION ( 'Web Model 64402MX_43740', ( #45, #125 ), #34 ) ;
#111 = LINE ( 'NONE', #191, #51 ) ;
#112 = AXIS2_PLACEMENT_3D ( 'NONE', #122, #66, #120 ) ;
#113 = ORIENTED_EDGE ( 'NONE', *, *, #184, .F. ) ;
#114 = DATE_AND_TIME ( #162, #204 ) ;
#115 = LINE ( 'NONE', #189, #57 ) ;
#116 = DIRECTION ( 'NONE',  ( 0.0000000000000000000, 0.0000000000000000000, -1.000000000000000000 ) ) ;
#117 = PERSON_AND_ORGANIZATION_ROLE ( 'creator' ) ;
#118 = ORIENTED_EDGE ( 'NONE', *, *, #219, .F. ) ;
#119 = DIRECTION ( 'NONE',  ( 1.000000000000000000, 0.0000000000000000000, -0.0000000000000000000 ) ) ;
#120 = DIRECTION ( 'NONE',  ( 0.0000000000000000000, 0.0000000000000000000, 1.000000000000000000 ) ) ;
#121 = APPROVAL_ROLE ( '' ) ;
#122 = CARTESIAN_POINT ( 'NONE',  ( 12.49999999999999800, -12.49999999999999600, 4.750000000000000000 ) ) ;
#123 = PERSON_AND_ORGANIZATION ( #226, #65 ) ;
#124 = DIRECTION ( 'NONE',  ( -0.0000000000000000000, -0.0000000000000000000, -1.000000000000000000 ) ) ;
#125 = AXIS2_PLACEMENT_3D ( 'NONE', #128, #186, #44 ) ;
#126 = PERSON_AND_ORGANIZATION ( #226, #65 ) ;
#127 = LINE ( 'NONE', #173, #85 ) ;
#128 = CARTESIAN_POINT ( 'NONE',  ( 0.0000000000000000000, 0.0000000000000000000, 0.0000000000000000000 ) ) ;
#129 = CARTESIAN_POINT ( 'NONE',  ( -12.50000000000000200, -12.50000000000000000, 4.750000000000000000 ) ) ;
#130 = APPLICATION_CONTEXT ( 'configuration controlled 3d designs of mechanical parts and assemblies' ) ;
#131 = EDGE_LOOP ( 'NONE', ( #206, #32, #225, #237 ) ) ;
#132 = APPROVAL ( #153, 'UNSPECIFIED' ) ;
#133 = CALENDAR_DATE ( 2017, 30, 10 ) ;
#134 = CARTESIAN_POINT ( 'NONE',  ( 12.49999999999999800, -12.49999999999999600, 4.750000000000000000 ) ) ;
#135 = APPROVAL_STATUS ( 'not_yet_approved' ) ;
#136 = DIRECTION ( 'NONE',  ( -1.000000000000000000, -1.387778780781445700E-016, 0.0000000000000000000 ) ) ;
#137 = CARTESIAN_POINT ( 'NONE',  ( 12.49999999999999800, 12.50000000000000400, 4.750000000000000000 ) ) ;
#138 = LINE ( 'NONE', #58, #46 ) ;
#139 = ORIENTED_EDGE ( 'NONE', *, *, #73, .T. ) ;
#140 = ORIENTED_EDGE ( 'NONE', *, *, #228, .T. ) ;
#141 = APPROVAL_PERSON_ORGANIZATION ( #148, #99, #121 ) ;
#142 = PERSON_AND_ORGANIZATION ( #226, #65 ) ;
#143 = LINE ( 'NONE', #234, #88 ) ;
#144 = VERTEX_POINT ( 'NONE', #172 ) ;
#145 = COORDINATED_UNIVERSAL_TIME_OFFSET ( 5, 0, .BEHIND. ) ;
#146 = CC_DESIGN_APPROVAL ( #132, ( #39 ) ) ;
#147 = EDGE_CURVE ( 'NONE', #47, #166, #192, .T. ) ;
#148 = PERSON_AND_ORGANIZATION ( #226, #65 ) ;
#149 = DIRECTION ( 'NONE',  ( 1.000000000000000000, 0.0000000000000000000, 0.0000000000000000000 ) ) ;
#150 = PERSON_AND_ORGANIZATION ( #226, #65 ) ;
#151 = CARTESIAN_POINT ( 'NONE',  ( 12.49999999999999800, -12.49999999999999600, -4.750000000000000000 ) ) ;
#152 = ORIENTED_EDGE ( 'NONE', *, *, #164, .T. ) ;
#153 = APPROVAL_STATUS ( 'not_yet_approved' ) ;
#154 = DIRECTION ( 'NONE',  ( -0.0000000000000000000, -1.000000000000000000, -0.0000000000000000000 ) ) ;
#155 = LOCAL_TIME ( 9, 10, 33.00000000000000000, #21 ) ;
#156 = SHAPE_DEFINITION_REPRESENTATION ( #167, #110 ) ;
#157 = DIRECTION ( 'NONE',  ( 0.0000000000000000000, 1.000000000000000000, 0.0000000000000000000 ) ) ;
#158 = VERTEX_POINT ( 'NONE', #60 ) ;
#159 = FACE_OUTER_BOUND ( 'NONE', #201, .T. ) ;
#160 = ORIENTED_EDGE ( 'NONE', *, *, #214, .T. ) ;
#161 = CC_DESIGN_SECURITY_CLASSIFICATION ( #31, ( #39 ) ) ;
#162 = CALENDAR_DATE ( 2017, 30, 10 ) ;
#163 = VERTEX_POINT ( 'NONE', #216 ) ;
#164 = EDGE_CURVE ( 'NONE', #144, #158, #138, .T. ) ;
#165 = LINE ( 'NONE', #169, #211 ) ;
#166 = VERTEX_POINT ( 'NONE', #77 ) ;
#167 = PRODUCT_DEFINITION_SHAPE ( 'NONE', 'NONE',  #217 ) ;
#168 = LOCAL_TIME ( 9, 10, 33.00000000000000000, #35 ) ;
#169 = CARTESIAN_POINT ( 'NONE',  ( -12.50000000000000200, -12.50000000000000000, -4.750000000000000000 ) ) ;
#170 =( NAMED_UNIT ( * ) PLANE_ANGLE_UNIT ( ) SI_UNIT ( $, .RADIAN. ) );
#171 = EDGE_LOOP ( 'NONE', ( #55, #235, #100, #118 ) ) ;
#172 = CARTESIAN_POINT ( 'NONE',  ( 12.49999999999999800, 12.50000000000000400, -4.750000000000000000 ) ) ;
#173 = CARTESIAN_POINT ( 'NONE',  ( -12.50000000000000200, 12.50000000000000000, 4.750000000000000000 ) ) ;
#174 = DATE_AND_TIME ( #209, #155 ) ;
#175 = PLANE ( 'NONE',  #109 ) ;
#176 = LOCAL_TIME ( 9, 10, 33.00000000000000000, #145 ) ;
#177 = APPROVAL_ROLE ( '' ) ;
#178 = DIRECTION ( 'NONE',  ( -1.000000000000000000, -1.387778780781445700E-016, 0.0000000000000000000 ) ) ;
#179 = DIRECTION ( 'NONE',  ( -1.387778780781445700E-016, 1.000000000000000000, 0.0000000000000000000 ) ) ;
#180 = ORIENTED_EDGE ( 'NONE', *, *, #102, .F. ) ;
#181 = FACE_OUTER_BOUND ( 'NONE', #198, .T. ) ;
#182 = VECTOR ( 'NONE', #194, 1000.000000000000000 ) ;
#183 = DATE_AND_TIME ( #133, #71 ) ;
#184 = EDGE_CURVE ( 'NONE', #163, #47, #91, .T. ) ;
#185 = DIRECTION ( 'NONE',  ( -0.0000000000000000000, -1.000000000000000000, -0.0000000000000000000 ) ) ;
#186 = DIRECTION ( 'NONE',  ( 0.0000000000000000000, 0.0000000000000000000, 1.000000000000000000 ) ) ;
#187 = EDGE_CURVE ( 'NONE', #86, #144, #14, .T. ) ;
#188 = PERSON_AND_ORGANIZATION ( #226, #65 ) ;
#189 = CARTESIAN_POINT ( 'NONE',  ( 12.49999999999999800, -12.49999999999999600, 4.750000000000000000 ) ) ;
#190 = DATE_TIME_ROLE ( 'creation_date' ) ;
#191 = CARTESIAN_POINT ( 'NONE',  ( 12.49999999999999800, -12.49999999999999600, -4.750000000000000000 ) ) ;
#192 = LINE ( 'NONE', #134, #107 ) ;
#193 = APPLICATION_PROTOCOL_DEFINITION ( 'international standard', 'config_control_design', 1994, #28 ) ;
#194 = DIRECTION ( 'NONE',  ( 1.000000000000000000, 1.387778780781445700E-016, -0.0000000000000000000 ) ) ;
#195 = EDGE_CURVE ( 'NONE', #163, #158, #127, .T. ) ;
#196 = CARTESIAN_POINT ( 'NONE',  ( 12.49999999999999800, 12.50000000000000400, 4.750000000000000000 ) ) ;
#197 = FACE_OUTER_BOUND ( 'NONE', #23, .T. ) ;
#198 = EDGE_LOOP ( 'NONE', ( #139, #218, #20, #67 ) ) ;
#199 = CC_DESIGN_APPROVAL ( #48, ( #217 ) ) ;
#200 = ORIENTED_EDGE ( 'NONE', *, *, #195, .T. ) ;
#201 = EDGE_LOOP ( 'NONE', ( #10, #222, #140, #160 ) ) ;
#202 = CC_DESIGN_APPROVAL ( #99, ( #31 ) ) ;
#203 = APPROVAL_DATE_TIME ( #174, #99 ) ;
#204 = LOCAL_TIME ( 9, 10, 33.00000000000000000, #220 ) ;
#205 = VECTOR ( 'NONE', #230, 1000.000000000000000 ) ;
#206 = ORIENTED_EDGE ( 'NONE', *, *, #219, .T. ) ;
#207 = LINE ( 'NONE', #227, #182 ) ;
#208 = AXIS2_PLACEMENT_3D ( 'NONE', #84, #43, #119 ) ;
#209 = CALENDAR_DATE ( 2017, 30, 10 ) ;
#210 = PLANE ( 'NONE',  #208 ) ;
#211 = VECTOR ( 'NONE', #185, 1000.000000000000000 ) ;
#212 = CARTESIAN_POINT ( 'NONE',  ( -12.50000000000000200, -12.50000000000000000, 4.750000000000000000 ) ) ;
#213 = CARTESIAN_POINT ( 'NONE',  ( 12.49999999999999800, 12.50000000000000400, 4.750000000000000000 ) ) ;
#214 = EDGE_CURVE ( 'NONE', #86, #163, #22, .T. ) ;
#215 = APPROVAL_PERSON_ORGANIZATION ( #150, #48, #41 ) ;
#216 = CARTESIAN_POINT ( 'NONE',  ( -12.50000000000000200, 12.50000000000000000, 4.750000000000000000 ) ) ;
#217 = PRODUCT_DEFINITION ( 'UNKNOWN', '', #39, #11 ) ;
#218 = ORIENTED_EDGE ( 'NONE', *, *, #187, .F. ) ;
#219 = EDGE_CURVE ( 'NONE', #2, #96, #207, .T. ) ;
#220 = COORDINATED_UNIVERSAL_TIME_OFFSET ( 5, 0, .BEHIND. ) ;
#221 = ADVANCED_FACE ( 'NONE', ( #197 ), #97, .F. ) ;
#222 = ORIENTED_EDGE ( 'NONE', *, *, #147, .T. ) ;
#223 = LINE ( 'NONE', #212, #205 ) ;
#224 =( LENGTH_UNIT ( ) NAMED_UNIT ( * ) SI_UNIT ( .MILLI., .METRE. ) );
#225 = ORIENTED_EDGE ( 'NONE', *, *, #147, .F. ) ;
#226 = PERSON ( 'UNSPECIFIED', 'UNSPECIFIED', 'UNSPECIFIED', ('UNSPECIFIED'), ('UNSPECIFIED'), ('UNSPECIFIED') ) ;
#227 = CARTESIAN_POINT ( 'NONE',  ( 12.49999999999999800, -12.49999999999999600, -4.750000000000000000 ) ) ;
#228 = EDGE_CURVE ( 'NONE', #166, #86, #143, .T. ) ;
#229 = CALENDAR_DATE ( 2017, 30, 10 ) ;
#230 = DIRECTION ( 'NONE',  ( -0.0000000000000000000, -0.0000000000000000000, -1.000000000000000000 ) ) ;
#231 = DIRECTION ( 'NONE',  ( 1.000000000000000000, 0.0000000000000000000, -0.0000000000000000000 ) ) ;
#232 = AXIS2_PLACEMENT_3D ( 'NONE', #129, #149, #116 ) ;
#233 = VECTOR ( 'NONE', #154, 1000.000000000000000 ) ;
#234 = CARTESIAN_POINT ( 'NONE',  ( 12.49999999999999800, -12.49999999999999600, 4.750000000000000000 ) ) ;
#235 = ORIENTED_EDGE ( 'NONE', *, *, #164, .F. ) ;
#236 = COORDINATED_UNIVERSAL_TIME_OFFSET ( 5, 0, .BEHIND. ) ;
#237 = ORIENTED_EDGE ( 'NONE', *, *, #102, .T. ) ;
ENDSEC;
END-ISO-10303-21;
