ISO-10303-21;
HEADER;
FILE_DESCRIPTION (( 'STEP AP203' ),
    '1' );
FILE_NAME ('36935_36957.step',
    '2017-08-23T20:35:52',
    ( '' ),
    ( '' ),
    'SwSTEP 2.0',
    'SolidWorks 2016',
    '' );
FILE_SCHEMA (( 'CONFIG_CONTROL_DESIGN' ));
ENDSEC;

DATA;
#1 = MANIFOLD_SOLID_BREP ( 'Boss-Extrude1', #162 ) ;
#2 = DIRECTION ( 'NONE',  ( 0.0000000000000000000, 0.0000000000000000000, 1.000000000000000000 ) ) ;
#3 = PERSON_AND_ORGANIZATION ( #12, #66 ) ;
#4 = LINE ( 'NONE', #71, #110 ) ;
#5 = DIRECTION ( 'NONE',  ( 1.000000000000000000, 0.0000000000000000000, 0.0000000000000000000 ) ) ;
#6 = AXIS2_PLACEMENT_3D ( 'NONE', #74, #11, #166 ) ;
#7 = CALENDAR_DATE ( 2017, 23, 8 ) ;
#8 = ORIENTED_EDGE ( 'NONE', *, *, #126, .F. ) ;
#9 = PERSON_AND_ORGANIZATION ( #12, #66 ) ;
#10 = ORIENTED_EDGE ( 'NONE', *, *, #126, .T. ) ;
#11 = DIRECTION ( 'NONE',  ( 0.0000000000000000000, 0.0000000000000000000, 1.000000000000000000 ) ) ;
#12 = PERSON ( 'UNSPECIFIED', 'UNSPECIFIED', 'UNSPECIFIED', ('UNSPECIFIED'), ('UNSPECIFIED'), ('UNSPECIFIED') ) ;
#13 = DIRECTION ( 'NONE',  ( -1.000000000000000000, 0.0000000000000000000, 0.0000000000000000000 ) ) ;
#14 = ADVANCED_FACE ( 'NONE', ( #171 ), #153, .T. ) ;
#15 = APPROVAL_PERSON_ORGANIZATION ( #95, #164, #64 ) ;
#16 = CARTESIAN_POINT ( 'NONE',  ( -37.49999999999999300, 0.0000000000000000000, 1.500000000000000000 ) ) ;
#17 = AXIS2_PLACEMENT_3D ( 'NONE', #154, #2, #75 ) ;
#18 = PERSON_AND_ORGANIZATION_ROLE ( 'classification_officer' ) ;
#19 = APPROVAL_STATUS ( 'not_yet_approved' ) ;
#20 = DIRECTION ( 'NONE',  ( 0.0000000000000000000, 0.0000000000000000000, 1.000000000000000000 ) ) ;
#21 = CALENDAR_DATE ( 2017, 23, 8 ) ;
#22 = AXIS2_PLACEMENT_3D ( 'NONE', #92, #160, #32 ) ;
#23 = CC_DESIGN_DATE_AND_TIME_ASSIGNMENT ( #150, #105, ( #112 ) ) ;
#24 = APPROVAL_PERSON_ORGANIZATION ( #115, #41, #108 ) ;
#25 = EDGE_LOOP ( 'NONE', ( #129, #37 ) ) ;
#26 = DIRECTION ( 'NONE',  ( 0.0000000000000000000, 0.0000000000000000000, 1.000000000000000000 ) ) ;
#27 = PERSON_AND_ORGANIZATION ( #12, #66 ) ;
#28 = CC_DESIGN_APPROVAL ( #155, ( #140 ) ) ;
#29 = VERTEX_POINT ( 'NONE', #142 ) ;
#30 = DIRECTION ( 'NONE',  ( -0.0000000000000000000, -0.0000000000000000000, -1.000000000000000000 ) ) ;
#31 = EDGE_CURVE ( 'NONE', #38, #77, #151, .T. ) ;
#32 = DIRECTION ( 'NONE',  ( 1.000000000000000000, 0.0000000000000000000, 0.0000000000000000000 ) ) ;
#33 = EDGE_LOOP ( 'NONE', ( #8, #49, #157, #96 ) ) ;
#34 = CC_DESIGN_PERSON_AND_ORGANIZATION_ASSIGNMENT ( #3, #107, ( #87 ) ) ;
#35 = APPLICATION_CONTEXT ( 'configuration controlled 3d designs of mechanical parts and assemblies' ) ;
#36 = CIRCLE ( 'NONE', #102, 37.49999999999999300 ) ;
#37 = ORIENTED_EDGE ( 'NONE', *, *, #156, .F. ) ;
#38 = VERTEX_POINT ( 'NONE', #16 ) ;
#39 =( GEOMETRIC_REPRESENTATION_CONTEXT ( 3 ) GLOBAL_UNCERTAINTY_ASSIGNED_CONTEXT ( ( #98 ) ) GLOBAL_UNIT_ASSIGNED_CONTEXT ( ( #121, #106, #170 ) ) REPRESENTATION_CONTEXT ( 'NONE', 'WORKASPACE' ) );
#40 = PRODUCT_DEFINITION_SHAPE ( 'NONE', 'NONE',  #112 ) ;
#41 = APPROVAL ( #169, 'UNSPECIFIED' ) ;
#42 = DIRECTION ( 'NONE',  ( -1.000000000000000000, 0.0000000000000000000, 0.0000000000000000000 ) ) ;
#43 = APPROVAL_DATE_TIME ( #59, #164 ) ;
#44 = ORIENTED_EDGE ( 'NONE', *, *, #122, .T. ) ;
#45 = ADVANCED_FACE ( 'NONE', ( #175 ), #118, .T. ) ;
#46 = CARTESIAN_POINT ( 'NONE',  ( 0.0000000000000000000, 0.0000000000000000000, -1.500000000000000000 ) ) ;
#47 = CARTESIAN_POINT ( 'NONE',  ( 0.0000000000000000000, 0.0000000000000000000, 1.500000000000000000 ) ) ;
#48 = CC_DESIGN_PERSON_AND_ORGANIZATION_ASSIGNMENT ( #123, #173, ( #140 ) ) ;
#49 = ORIENTED_EDGE ( 'NONE', *, *, #79, .T. ) ;
#50 = APPLICATION_PROTOCOL_DEFINITION ( 'international standard', 'config_control_design', 1994, #91 ) ;
#51 = LOCAL_TIME ( 16, 35, 52.00000000000000000, #81 ) ;
#52 = PERSON_AND_ORGANIZATION_ROLE ( 'creator' ) ;
#53 = MECHANICAL_CONTEXT ( 'NONE', #35, 'mechanical' ) ;
#54 = DATE_AND_TIME ( #57, #124 ) ;
#55 = EDGE_LOOP ( 'NONE', ( #69, #78, #68, #44 ) ) ;
#56 = CC_DESIGN_APPROVAL ( #41, ( #147 ) ) ;
#57 = CALENDAR_DATE ( 2017, 23, 8 ) ;
#58 = CC_DESIGN_PERSON_AND_ORGANIZATION_ASSIGNMENT ( #85, #18, ( #147 ) ) ;
#59 = DATE_AND_TIME ( #89, #127 ) ;
#60 = DATE_AND_TIME ( #21, #99 ) ;
#61 = DIRECTION ( 'NONE',  ( 0.0000000000000000000, 0.0000000000000000000, 1.000000000000000000 ) ) ;
#62 = DATE_TIME_ROLE ( 'classification_date' ) ;
#63 = CC_DESIGN_SECURITY_CLASSIFICATION ( #147, ( #140 ) ) ;
#64 = APPROVAL_ROLE ( '' ) ;
#65 = DESIGN_CONTEXT ( 'detailed design', #91, 'design' ) ;
#66 = ORGANIZATION ( 'UNSPECIFIED', 'UNSPECIFIED', '' ) ;
#67 = CIRCLE ( 'NONE', #114, 37.49999999999999300 ) ;
#68 = ORIENTED_EDGE ( 'NONE', *, *, #31, .T. ) ;
#69 = ORIENTED_EDGE ( 'NONE', *, *, #79, .F. ) ;
#70 = AXIS2_PLACEMENT_3D ( 'NONE', #104, #20, #135 ) ;
#71 = CARTESIAN_POINT ( 'NONE',  ( 37.49999999999999300, 4.592425496802573600E-015, 1.500000000000000000 ) ) ;
#72 = LOCAL_TIME ( 16, 35, 52.00000000000000000, #163 ) ;
#73 = CYLINDRICAL_SURFACE ( 'NONE', #94, 37.49999999999999300 ) ;
#74 = CARTESIAN_POINT ( 'NONE',  ( 0.0000000000000000000, 0.0000000000000000000, -1.500000000000000000 ) ) ;
#75 = DIRECTION ( 'NONE',  ( 1.000000000000000000, 0.0000000000000000000, -0.0000000000000000000 ) ) ;
#76 = DIRECTION ( 'NONE',  ( -0.0000000000000000000, -0.0000000000000000000, -1.000000000000000000 ) ) ;
#77 = VERTEX_POINT ( 'NONE', #88 ) ;
#78 = ORIENTED_EDGE ( 'NONE', *, *, #93, .F. ) ;
#79 = EDGE_CURVE ( 'NONE', #29, #139, #4, .T. ) ;
#80 = SHAPE_DEFINITION_REPRESENTATION ( #40, #125 ) ;
#81 = COORDINATED_UNIVERSAL_TIME_OFFSET ( 5, 0, .BEHIND. ) ;
#82 = ORIENTED_EDGE ( 'NONE', *, *, #93, .T. ) ;
#83 = CC_DESIGN_PERSON_AND_ORGANIZATION_ASSIGNMENT ( #161, #134, ( #112 ) ) ;
#84 = ADVANCED_FACE ( 'NONE', ( #141 ), #73, .T. ) ;
#85 = PERSON_AND_ORGANIZATION ( #12, #66 ) ;
#86 = DIRECTION ( 'NONE',  ( 0.0000000000000000000, 0.0000000000000000000, 1.000000000000000000 ) ) ;
#87 = PRODUCT ( '36935_36957', '36935_36957', '', ( #53 ) ) ;
#88 = CARTESIAN_POINT ( 'NONE',  ( -37.49999999999999300, 0.0000000000000000000, -1.500000000000000000 ) ) ;
#89 = CALENDAR_DATE ( 2017, 23, 8 ) ;
#90 = EDGE_LOOP ( 'NONE', ( #82, #10 ) ) ;
#91 = APPLICATION_CONTEXT ( 'configuration controlled 3d designs of mechanical parts and assemblies' ) ;
#92 = CARTESIAN_POINT ( 'NONE',  ( 0.0000000000000000000, 0.0000000000000000000, -1.500000000000000000 ) ) ;
#93 = EDGE_CURVE ( 'NONE', #38, #29, #146, .T. ) ;
#94 = AXIS2_PLACEMENT_3D ( 'NONE', #132, #168, #13 ) ;
#95 = PERSON_AND_ORGANIZATION ( #12, #66 ) ;
#96 = ORIENTED_EDGE ( 'NONE', *, *, #31, .F. ) ;
#97 = COORDINATED_UNIVERSAL_TIME_OFFSET ( 5, 0, .BEHIND. ) ;
#98 = UNCERTAINTY_MEASURE_WITH_UNIT (LENGTH_MEASURE( 1.000000000000000100E-005 ), #121, 'distance_accuracy_value', 'NONE');
#99 = LOCAL_TIME ( 16, 35, 52.00000000000000000, #109 ) ;
#100 = CIRCLE ( 'NONE', #22, 37.49999999999999300 ) ;
#101 = PLANE ( 'NONE',  #6 ) ;
#102 = AXIS2_PLACEMENT_3D ( 'NONE', #46, #86, #130 ) ;
#103 = CARTESIAN_POINT ( 'NONE',  ( 37.49999999999999300, 4.592425496802573600E-015, -1.500000000000000000 ) ) ;
#104 = CARTESIAN_POINT ( 'NONE',  ( 0.0000000000000000000, 0.0000000000000000000, 0.0000000000000000000 ) ) ;
#105 = DATE_TIME_ROLE ( 'creation_date' ) ;
#106 =( NAMED_UNIT ( * ) PLANE_ANGLE_UNIT ( ) SI_UNIT ( $, .RADIAN. ) );
#107 = PERSON_AND_ORGANIZATION_ROLE ( 'design_owner' ) ;
#108 = APPROVAL_ROLE ( '' ) ;
#109 = COORDINATED_UNIVERSAL_TIME_OFFSET ( 5, 0, .BEHIND. ) ;
#110 = VECTOR ( 'NONE', #76, 1000.000000000000000 ) ;
#111 = CC_DESIGN_PERSON_AND_ORGANIZATION_ASSIGNMENT ( #9, #52, ( #140 ) ) ;
#112 = PRODUCT_DEFINITION ( 'UNKNOWN', '', #140, #65 ) ;
#113 = DATE_AND_TIME ( #136, #51 ) ;
#114 = AXIS2_PLACEMENT_3D ( 'NONE', #116, #61, #143 ) ;
#115 = PERSON_AND_ORGANIZATION ( #12, #66 ) ;
#116 = CARTESIAN_POINT ( 'NONE',  ( 0.0000000000000000000, 0.0000000000000000000, 1.500000000000000000 ) ) ;
#117 = CARTESIAN_POINT ( 'NONE',  ( -37.49999999999999300, 0.0000000000000000000, 1.500000000000000000 ) ) ;
#118 = PLANE ( 'NONE',  #17 ) ;
#119 = AXIS2_PLACEMENT_3D ( 'NONE', #47, #26, #5 ) ;
#120 = APPLICATION_PROTOCOL_DEFINITION ( 'international standard', 'config_control_design', 1994, #35 ) ;
#121 =( LENGTH_UNIT ( ) NAMED_UNIT ( * ) SI_UNIT ( .MILLI., .METRE. ) );
#122 = EDGE_CURVE ( 'NONE', #77, #139, #36, .T. ) ;
#123 = PERSON_AND_ORGANIZATION ( #12, #66 ) ;
#124 = LOCAL_TIME ( 16, 35, 52.00000000000000000, #137 ) ;
#125 = ADVANCED_BREP_SHAPE_REPRESENTATION ( '36935_36957', ( #1, #70 ), #39 ) ;
#126 = EDGE_CURVE ( 'NONE', #29, #38, #67, .T. ) ;
#127 = LOCAL_TIME ( 16, 35, 52.00000000000000000, #97 ) ;
#128 = AXIS2_PLACEMENT_3D ( 'NONE', #144, #145, #42 ) ;
#129 = ORIENTED_EDGE ( 'NONE', *, *, #122, .F. ) ;
#130 = DIRECTION ( 'NONE',  ( 1.000000000000000000, 0.0000000000000000000, 0.0000000000000000000 ) ) ;
#131 = ADVANCED_FACE ( 'NONE', ( #167 ), #101, .F. ) ;
#132 = CARTESIAN_POINT ( 'NONE',  ( 0.0000000000000000000, 0.0000000000000000000, 1.500000000000000000 ) ) ;
#133 = CC_DESIGN_APPROVAL ( #164, ( #112 ) ) ;
#134 = PERSON_AND_ORGANIZATION_ROLE ( 'creator' ) ;
#135 = DIRECTION ( 'NONE',  ( 1.000000000000000000, 0.0000000000000000000, 0.0000000000000000000 ) ) ;
#136 = CALENDAR_DATE ( 2017, 23, 8 ) ;
#137 = COORDINATED_UNIVERSAL_TIME_OFFSET ( 5, 0, .BEHIND. ) ;
#138 = APPROVAL_PERSON_ORGANIZATION ( #27, #155, #158 ) ;
#139 = VERTEX_POINT ( 'NONE', #103 ) ;
#140 = PRODUCT_DEFINITION_FORMATION_WITH_SPECIFIED_SOURCE ( 'ANY', '', #87, .NOT_KNOWN. ) ;
#141 = FACE_OUTER_BOUND ( 'NONE', #55, .T. ) ;
#142 = CARTESIAN_POINT ( 'NONE',  ( 37.49999999999999300, 4.592425496802573600E-015, 1.500000000000000000 ) ) ;
#143 = DIRECTION ( 'NONE',  ( 1.000000000000000000, 0.0000000000000000000, 0.0000000000000000000 ) ) ;
#144 = CARTESIAN_POINT ( 'NONE',  ( 0.0000000000000000000, 0.0000000000000000000, 1.500000000000000000 ) ) ;
#145 = DIRECTION ( 'NONE',  ( -0.0000000000000000000, -0.0000000000000000000, -1.000000000000000000 ) ) ;
#146 = CIRCLE ( 'NONE', #119, 37.49999999999999300 ) ;
#147 = SECURITY_CLASSIFICATION ( '', '', #159 ) ;
#148 = VECTOR ( 'NONE', #30, 1000.000000000000000 ) ;
#149 = APPROVAL_STATUS ( 'not_yet_approved' ) ;
#150 = DATE_AND_TIME ( #7, #72 ) ;
#151 = LINE ( 'NONE', #117, #148 ) ;
#152 = APPROVAL_DATE_TIME ( #54, #155 ) ;
#153 = CYLINDRICAL_SURFACE ( 'NONE', #128, 37.49999999999999300 ) ;
#154 = CARTESIAN_POINT ( 'NONE',  ( 0.0000000000000000000, 0.0000000000000000000, 1.500000000000000000 ) ) ;
#155 = APPROVAL ( #19, 'UNSPECIFIED' ) ;
#156 = EDGE_CURVE ( 'NONE', #139, #77, #100, .T. ) ;
#157 = ORIENTED_EDGE ( 'NONE', *, *, #156, .T. ) ;
#158 = APPROVAL_ROLE ( '' ) ;
#159 = SECURITY_CLASSIFICATION_LEVEL ( 'unclassified' ) ;
#160 = DIRECTION ( 'NONE',  ( 0.0000000000000000000, 0.0000000000000000000, 1.000000000000000000 ) ) ;
#161 = PERSON_AND_ORGANIZATION ( #12, #66 ) ;
#162 = CLOSED_SHELL ( 'NONE', ( #14, #84, #45, #131 ) ) ;
#163 = COORDINATED_UNIVERSAL_TIME_OFFSET ( 5, 0, .BEHIND. ) ;
#164 = APPROVAL ( #149, 'UNSPECIFIED' ) ;
#165 = APPROVAL_DATE_TIME ( #60, #41 ) ;
#166 = DIRECTION ( 'NONE',  ( 1.000000000000000000, 0.0000000000000000000, -0.0000000000000000000 ) ) ;
#167 = FACE_OUTER_BOUND ( 'NONE', #25, .T. ) ;
#168 = DIRECTION ( 'NONE',  ( -0.0000000000000000000, -0.0000000000000000000, -1.000000000000000000 ) ) ;
#169 = APPROVAL_STATUS ( 'not_yet_approved' ) ;
#170 =( NAMED_UNIT ( * ) SI_UNIT ( $, .STERADIAN. ) SOLID_ANGLE_UNIT ( ) );
#171 = FACE_OUTER_BOUND ( 'NONE', #33, .T. ) ;
#172 = CC_DESIGN_DATE_AND_TIME_ASSIGNMENT ( #113, #62, ( #147 ) ) ;
#173 = PERSON_AND_ORGANIZATION_ROLE ( 'design_supplier' ) ;
#174 = PRODUCT_RELATED_PRODUCT_CATEGORY ( 'detail', '', ( #87 ) ) ;
#175 = FACE_OUTER_BOUND ( 'NONE', #90, .T. ) ;
ENDSEC;
END-ISO-10303-21;
