ISO-10303-21;
HEADER;
FILE_DESCRIPTION (( 'STEP AP203' ),
    '1' );
FILE_NAME ('Web Model 43362_43362.step',
    '2017-04-12T16:01:38',
    ( '' ),
    ( '' ),
    'SwSTEP 2.0',
    'SolidWorks 2016',
    '' );
FILE_SCHEMA (( 'CONFIG_CONTROL_DESIGN' ));
ENDSEC;

DATA;
#1 = FACE_OUTER_BOUND ( 'NONE', #20, .T. ) ;
#2 = ORIENTED_EDGE ( 'NONE', *, *, #58, .T. ) ;
#3 = EDGE_CURVE ( 'NONE', #50, #131, #34, .T. ) ;
#4 = CARTESIAN_POINT ( 'NONE',  ( -63.50000000000000000, -89.00000000000000000, 1.500000000000000000 ) ) ;
#5 = APPROVAL ( #79, 'UNSPECIFIED' ) ;
#6 = CARTESIAN_POINT ( 'NONE',  ( -63.50000000000000000, -89.00000000000000000, -1.500000000000000000 ) ) ;
#7 = PERSON ( 'UNSPECIFIED', 'UNSPECIFIED', 'UNSPECIFIED', ('UNSPECIFIED'), ('UNSPECIFIED'), ('UNSPECIFIED') ) ;
#8 = FACE_OUTER_BOUND ( 'NONE', #28, .T. ) ;
#9 = LOCAL_TIME ( 12, 1, 38.00000000000000000, #13 ) ;
#10 = APPLICATION_CONTEXT ( 'configuration controlled 3d designs of mechanical parts and assemblies' ) ;
#11 = ORIENTED_EDGE ( 'NONE', *, *, #60, .F. ) ;
#12 = DIRECTION ( 'NONE',  ( 0.0000000000000000000, -0.0000000000000000000, 1.000000000000000000 ) ) ;
#13 = COORDINATED_UNIVERSAL_TIME_OFFSET ( 5, 0, .BEHIND. ) ;
#14 = APPLICATION_CONTEXT ( 'configuration controlled 3d designs of mechanical parts and assemblies' ) ;
#15 = EDGE_CURVE ( 'NONE', #37, #184, #134, .T. ) ;
#16 = CC_DESIGN_APPROVAL ( #5, ( #199 ) ) ;
#17 = LOCAL_TIME ( 12, 1, 38.00000000000000000, #92 ) ;
#18 = CARTESIAN_POINT ( 'NONE',  ( -63.50000000000000000, -89.00000000000000000, -1.500000000000000000 ) ) ;
#19 = EDGE_CURVE ( 'NONE', #215, #105, #192, .T. ) ;
#20 = EDGE_LOOP ( 'NONE', ( #57, #217, #129, #82 ) ) ;
#21 = FACE_OUTER_BOUND ( 'NONE', #202, .T. ) ;
#22 = CARTESIAN_POINT ( 'NONE',  ( -63.50000000000000000, 89.00000000000000000, 1.500000000000000000 ) ) ;
#23 = PLANE ( 'NONE',  #67 ) ;
#24 = PERSON_AND_ORGANIZATION ( #7, #139 ) ;
#25 = PLANE ( 'NONE',  #115 ) ;
#26 = LINE ( 'NONE', #41, #211 ) ;
#27 = EDGE_CURVE ( 'NONE', #215, #184, #26, .T. ) ;
#28 = EDGE_LOOP ( 'NONE', ( #2, #11, #178, #167 ) ) ;
#29 = PERSON_AND_ORGANIZATION_ROLE ( 'design_supplier' ) ;
#30 = CC_DESIGN_SECURITY_CLASSIFICATION ( #199, ( #141 ) ) ;
#31 = LINE ( 'NONE', #225, #181 ) ;
#32 = DIRECTION ( 'NONE',  ( 0.0000000000000000000, 0.0000000000000000000, 1.000000000000000000 ) ) ;
#33 =( NAMED_UNIT ( * ) PLANE_ANGLE_UNIT ( ) SI_UNIT ( $, .RADIAN. ) );
#34 = LINE ( 'NONE', #94, #69 ) ;
#35 = EDGE_CURVE ( 'NONE', #75, #131, #146, .T. ) ;
#36 = DATE_AND_TIME ( #101, #219 ) ;
#37 = VERTEX_POINT ( 'NONE', #174 ) ;
#38 = ORIENTED_EDGE ( 'NONE', *, *, #228, .T. ) ;
#39 = VECTOR ( 'NONE', #182, 1000.000000000000000 ) ;
#40 = EDGE_CURVE ( 'NONE', #148, #215, #177, .T. ) ;
#41 = CARTESIAN_POINT ( 'NONE',  ( -63.50000000000000000, -89.00000000000000000, 1.500000000000000000 ) ) ;
#42 = VECTOR ( 'NONE', #156, 1000.000000000000000 ) ;
#43 = LOCAL_TIME ( 12, 1, 38.00000000000000000, #173 ) ;
#44 = PRODUCT_RELATED_PRODUCT_CATEGORY ( 'detail', '', ( #162 ) ) ;
#45 = DIRECTION ( 'NONE',  ( -0.0000000000000000000, 0.0000000000000000000, -1.000000000000000000 ) ) ;
#46 = EDGE_CURVE ( 'NONE', #105, #75, #190, .T. ) ;
#47 = ADVANCED_FACE ( 'NONE', ( #104 ), #160, .F. ) ;
#48 = PERSON_AND_ORGANIZATION ( #7, #139 ) ;
#49 = DIRECTION ( 'NONE',  ( 0.0000000000000000000, -0.0000000000000000000, -1.000000000000000000 ) ) ;
#50 = VERTEX_POINT ( 'NONE', #221 ) ;
#51 = CARTESIAN_POINT ( 'NONE',  ( -63.50000000000000000, 89.00000000000000000, -1.500000000000000000 ) ) ;
#52 = CALENDAR_DATE ( 2017, 12, 4 ) ;
#53 = DIRECTION ( 'NONE',  ( -0.0000000000000000000, -0.0000000000000000000, -1.000000000000000000 ) ) ;
#54 = PLANE ( 'NONE',  #111 ) ;
#55 = CARTESIAN_POINT ( 'NONE',  ( -63.50000000000000000, 89.00000000000000000, 1.500000000000000000 ) ) ;
#56 = APPROVAL_PERSON_ORGANIZATION ( #24, #191, #188 ) ;
#57 = ORIENTED_EDGE ( 'NONE', *, *, #15, .T. ) ;
#58 = EDGE_CURVE ( 'NONE', #184, #50, #59, .T. ) ;
#59 = LINE ( 'NONE', #6, #127 ) ;
#60 = EDGE_CURVE ( 'NONE', #105, #50, #31, .T. ) ;
#61 = DIRECTION ( 'NONE',  ( -1.000000000000000000, -0.0000000000000000000, -0.0000000000000000000 ) ) ;
#62 = EDGE_LOOP ( 'NONE', ( #120, #110, #140, #123 ) ) ;
#63 = CARTESIAN_POINT ( 'NONE',  ( -63.50000000000000000, 89.00000000000000000, 1.500000000000000000 ) ) ;
#64 = CARTESIAN_POINT ( 'NONE',  ( 0.0000000000000000000, 0.0000000000000000000, 1.500000000000000000 ) ) ;
#65 = APPROVAL_DATE_TIME ( #36, #191 ) ;
#66 = ADVANCED_FACE ( 'NONE', ( #1 ), #25, .F. ) ;
#67 = AXIS2_PLACEMENT_3D ( 'NONE', #84, #97, #113 ) ;
#68 = ORIENTED_EDGE ( 'NONE', *, *, #60, .T. ) ;
#69 = VECTOR ( 'NONE', #185, 1000.000000000000000 ) ;
#70 = APPLICATION_PROTOCOL_DEFINITION ( 'international standard', 'config_control_design', 1994, #10 ) ;
#71 = APPROVAL_ROLE ( '' ) ;
#72 = EDGE_CURVE ( 'NONE', #131, #37, #159, .T. ) ;
#73 = ORIENTED_EDGE ( 'NONE', *, *, #35, .F. ) ;
#74 = VECTOR ( 'NONE', #205, 1000.000000000000000 ) ;
#75 = VERTEX_POINT ( 'NONE', #80 ) ;
#76 = LINE ( 'NONE', #124, #74 ) ;
#77 = APPROVAL_ROLE ( '' ) ;
#78 = DIRECTION ( 'NONE',  ( -0.0000000000000000000, -0.0000000000000000000, -1.000000000000000000 ) ) ;
#79 = APPROVAL_STATUS ( 'not_yet_approved' ) ;
#80 = CARTESIAN_POINT ( 'NONE',  ( 63.50000000000000000, 89.00000000000000000, 1.500000000000000000 ) ) ;
#81 = PLANE ( 'NONE',  #89 ) ;
#82 = ORIENTED_EDGE ( 'NONE', *, *, #214, .T. ) ;
#83 = DATE_AND_TIME ( #132, #17 ) ;
#84 = CARTESIAN_POINT ( 'NONE',  ( 0.0000000000000000000, 0.0000000000000000000, -1.500000000000000000 ) ) ;
#85 = COORDINATED_UNIVERSAL_TIME_OFFSET ( 5, 0, .BEHIND. ) ;
#86 =( NAMED_UNIT ( * ) SI_UNIT ( $, .STERADIAN. ) SOLID_ANGLE_UNIT ( ) );
#87 = DATE_TIME_ROLE ( 'creation_date' ) ;
#88 = DATE_TIME_ROLE ( 'classification_date' ) ;
#89 = AXIS2_PLACEMENT_3D ( 'NONE', #168, #125, #12 ) ;
#90 = FACE_OUTER_BOUND ( 'NONE', #108, .T. ) ;
#91 = AXIS2_PLACEMENT_3D ( 'NONE', #130, #142, #49 ) ;
#92 = COORDINATED_UNIVERSAL_TIME_OFFSET ( 5, 0, .BEHIND. ) ;
#93 = LOCAL_TIME ( 12, 1, 38.00000000000000000, #155 ) ;
#94 = CARTESIAN_POINT ( 'NONE',  ( 63.50000000000000000, 89.00000000000000000, -1.500000000000000000 ) ) ;
#95 = DIRECTION ( 'NONE',  ( 1.000000000000000000, 0.0000000000000000000, 0.0000000000000000000 ) ) ;
#96 = ORIENTED_EDGE ( 'NONE', *, *, #58, .F. ) ;
#97 = DIRECTION ( 'NONE',  ( -0.0000000000000000000, 0.0000000000000000000, 1.000000000000000000 ) ) ;
#98 = PERSON_AND_ORGANIZATION ( #7, #139 ) ;
#99 = CARTESIAN_POINT ( 'NONE',  ( -63.50000000000000000, 89.00000000000000000, 1.500000000000000000 ) ) ;
#100 =( GEOMETRIC_REPRESENTATION_CONTEXT ( 3 ) GLOBAL_UNCERTAINTY_ASSIGNED_CONTEXT ( ( #209 ) ) GLOBAL_UNIT_ASSIGNED_CONTEXT ( ( #153, #33, #86 ) ) REPRESENTATION_CONTEXT ( 'NONE', 'WORKASPACE' ) );
#101 = CALENDAR_DATE ( 2017, 12, 4 ) ;
#102 = PLANE ( 'NONE',  #135 ) ;
#103 = CARTESIAN_POINT ( 'NONE',  ( 63.50000000000000000, 89.00000000000000000, 1.500000000000000000 ) ) ;
#104 = FACE_OUTER_BOUND ( 'NONE', #62, .T. ) ;
#105 = VERTEX_POINT ( 'NONE', #145 ) ;
#106 = APPROVAL_STATUS ( 'not_yet_approved' ) ;
#107 = APPROVAL_STATUS ( 'not_yet_approved' ) ;
#108 = EDGE_LOOP ( 'NONE', ( #128, #96, #116, #210 ) ) ;
#109 = APPROVAL_PERSON_ORGANIZATION ( #171, #5, #77 ) ;
#110 = ORIENTED_EDGE ( 'NONE', *, *, #214, .F. ) ;
#111 = AXIS2_PLACEMENT_3D ( 'NONE', #170, #231, #32 ) ;
#112 = ORIENTED_EDGE ( 'NONE', *, *, #40, .T. ) ;
#113 = DIRECTION ( 'NONE',  ( 1.000000000000000000, 0.0000000000000000000, 0.0000000000000000000 ) ) ;
#114 = DESIGN_CONTEXT ( 'detailed design', #10, 'design' ) ;
#115 = AXIS2_PLACEMENT_3D ( 'NONE', #63, #198, #45 ) ;
#116 = ORIENTED_EDGE ( 'NONE', *, *, #15, .F. ) ;
#117 = DIRECTION ( 'NONE',  ( -0.0000000000000000000, 0.0000000000000000000, 1.000000000000000000 ) ) ;
#118 = VECTOR ( 'NONE', #78, 1000.000000000000000 ) ;
#119 = ADVANCED_FACE ( 'NONE', ( #21 ), #102, .T. ) ;
#120 = ORIENTED_EDGE ( 'NONE', *, *, #72, .T. ) ;
#121 = DIRECTION ( 'NONE',  ( 1.000000000000000000, 0.0000000000000000000, 0.0000000000000000000 ) ) ;
#122 = VECTOR ( 'NONE', #144, 1000.000000000000000 ) ;
#123 = ORIENTED_EDGE ( 'NONE', *, *, #35, .T. ) ;
#124 = CARTESIAN_POINT ( 'NONE',  ( -63.50000000000000000, 89.00000000000000000, 1.500000000000000000 ) ) ;
#125 = DIRECTION ( 'NONE',  ( 0.0000000000000000000, 1.000000000000000000, 0.0000000000000000000 ) ) ;
#126 = MECHANICAL_CONTEXT ( 'NONE', #14, 'mechanical' ) ;
#127 = VECTOR ( 'NONE', #95, 1000.000000000000000 ) ;
#128 = ORIENTED_EDGE ( 'NONE', *, *, #3, .F. ) ;
#129 = ORIENTED_EDGE ( 'NONE', *, *, #40, .F. ) ;
#130 = CARTESIAN_POINT ( 'NONE',  ( -63.50000000000000000, 89.00000000000000000, 1.500000000000000000 ) ) ;
#131 = VERTEX_POINT ( 'NONE', #223 ) ;
#132 = CALENDAR_DATE ( 2017, 12, 4 ) ;
#133 = ADVANCED_FACE ( 'NONE', ( #90 ), #23, .F. ) ;
#134 = LINE ( 'NONE', #195, #175 ) ;
#135 = AXIS2_PLACEMENT_3D ( 'NONE', #64, #117, #121 ) ;
#136 = DATE_AND_TIME ( #52, #93 ) ;
#137 = CLOSED_SHELL ( 'NONE', ( #224, #47, #66, #201, #119, #133 ) ) ;
#138 = APPLICATION_PROTOCOL_DEFINITION ( 'international standard', 'config_control_design', 1994, #14 ) ;
#139 = ORGANIZATION ( 'UNSPECIFIED', 'UNSPECIFIED', '' ) ;
#140 = ORIENTED_EDGE ( 'NONE', *, *, #228, .F. ) ;
#141 = PRODUCT_DEFINITION_FORMATION_WITH_SPECIFIED_SOURCE ( 'ANY', '', #162, .NOT_KNOWN. ) ;
#142 = DIRECTION ( 'NONE',  ( 0.0000000000000000000, -1.000000000000000000, 0.0000000000000000000 ) ) ;
#143 = FACE_OUTER_BOUND ( 'NONE', #183, .T. ) ;
#144 = DIRECTION ( 'NONE',  ( 0.0000000000000000000, -1.000000000000000000, 0.0000000000000000000 ) ) ;
#145 = CARTESIAN_POINT ( 'NONE',  ( 63.50000000000000000, -89.00000000000000000, 1.500000000000000000 ) ) ;
#146 = LINE ( 'NONE', #103, #118 ) ;
#147 = CALENDAR_DATE ( 2017, 12, 4 ) ;
#148 = VERTEX_POINT ( 'NONE', #99 ) ;
#149 = CALENDAR_DATE ( 2017, 12, 4 ) ;
#150 = APPROVAL ( #106, 'UNSPECIFIED' ) ;
#151 = ORIENTED_EDGE ( 'NONE', *, *, #3, .T. ) ;
#152 = CARTESIAN_POINT ( 'NONE',  ( 0.0000000000000000000, 0.0000000000000000000, 0.0000000000000000000 ) ) ;
#153 =( LENGTH_UNIT ( ) NAMED_UNIT ( * ) SI_UNIT ( .MILLI., .METRE. ) );
#154 = AXIS2_PLACEMENT_3D ( 'NONE', #152, #169, #208 ) ;
#155 = COORDINATED_UNIVERSAL_TIME_OFFSET ( 5, 0, .BEHIND. ) ;
#156 = DIRECTION ( 'NONE',  ( 1.000000000000000000, 0.0000000000000000000, 0.0000000000000000000 ) ) ;
#157 = DIRECTION ( 'NONE',  ( -0.0000000000000000000, -0.0000000000000000000, -1.000000000000000000 ) ) ;
#158 = PERSON_AND_ORGANIZATION ( #7, #139 ) ;
#159 = LINE ( 'NONE', #51, #235 ) ;
#160 = PLANE ( 'NONE',  #91 ) ;
#161 = CC_DESIGN_APPROVAL ( #150, ( #141 ) ) ;
#162 = PRODUCT ( 'Web Model 43362_43362', 'Web Model 43362_43362', '', ( #126 ) ) ;
#163 = MANIFOLD_SOLID_BREP ( 'Boss-Extrude1', #137 ) ;
#164 = CC_DESIGN_PERSON_AND_ORGANIZATION_ASSIGNMENT ( #158, #206, ( #162 ) ) ;
#165 = DIRECTION ( 'NONE',  ( 0.0000000000000000000, -1.000000000000000000, 0.0000000000000000000 ) ) ;
#166 = VECTOR ( 'NONE', #53, 1000.000000000000000 ) ;
#167 = ORIENTED_EDGE ( 'NONE', *, *, #27, .T. ) ;
#168 = CARTESIAN_POINT ( 'NONE',  ( -63.50000000000000000, -89.00000000000000000, 1.500000000000000000 ) ) ;
#169 = DIRECTION ( 'NONE',  ( 0.0000000000000000000, 0.0000000000000000000, 1.000000000000000000 ) ) ;
#170 = CARTESIAN_POINT ( 'NONE',  ( 63.50000000000000000, 89.00000000000000000, 1.500000000000000000 ) ) ;
#171 = PERSON_AND_ORGANIZATION ( #7, #139 ) ;
#172 = CC_DESIGN_PERSON_AND_ORGANIZATION_ASSIGNMENT ( #180, #187, ( #141 ) ) ;
#173 = COORDINATED_UNIVERSAL_TIME_OFFSET ( 5, 0, .BEHIND. ) ;
#174 = CARTESIAN_POINT ( 'NONE',  ( -63.50000000000000000, 89.00000000000000000, -1.500000000000000000 ) ) ;
#175 = VECTOR ( 'NONE', #165, 1000.000000000000000 ) ;
#176 = PRODUCT_DEFINITION ( 'UNKNOWN', '', #141, #114 ) ;
#177 = LINE ( 'NONE', #22, #122 ) ;
#178 = ORIENTED_EDGE ( 'NONE', *, *, #19, .F. ) ;
#179 = CARTESIAN_POINT ( 'NONE',  ( 63.50000000000000000, 89.00000000000000000, 1.500000000000000000 ) ) ;
#180 = PERSON_AND_ORGANIZATION ( #7, #139 ) ;
#181 = VECTOR ( 'NONE', #157, 1000.000000000000000 ) ;
#182 = DIRECTION ( 'NONE',  ( -0.0000000000000000000, 1.000000000000000000, -0.0000000000000000000 ) ) ;
#183 = EDGE_LOOP ( 'NONE', ( #151, #73, #233, #68 ) ) ;
#184 = VERTEX_POINT ( 'NONE', #18 ) ;
#185 = DIRECTION ( 'NONE',  ( -0.0000000000000000000, 1.000000000000000000, -0.0000000000000000000 ) ) ;
#186 = CC_DESIGN_PERSON_AND_ORGANIZATION_ASSIGNMENT ( #98, #29, ( #141 ) ) ;
#187 = PERSON_AND_ORGANIZATION_ROLE ( 'creator' ) ;
#188 = APPROVAL_ROLE ( '' ) ;
#189 = PERSON_AND_ORGANIZATION_ROLE ( 'classification_officer' ) ;
#190 = LINE ( 'NONE', #179, #39 ) ;
#191 = APPROVAL ( #107, 'UNSPECIFIED' ) ;
#192 = LINE ( 'NONE', #222, #42 ) ;
#193 = DATE_AND_TIME ( #149, #9 ) ;
#194 = DATE_AND_TIME ( #147, #43 ) ;
#195 = CARTESIAN_POINT ( 'NONE',  ( -63.50000000000000000, 89.00000000000000000, -1.500000000000000000 ) ) ;
#196 = ADVANCED_BREP_SHAPE_REPRESENTATION ( 'Web Model 43362_43362', ( #163, #154 ), #100 ) ;
#197 = APPROVAL_DATE_TIME ( #193, #5 ) ;
#198 = DIRECTION ( 'NONE',  ( 1.000000000000000000, 0.0000000000000000000, -0.0000000000000000000 ) ) ;
#199 = SECURITY_CLASSIFICATION ( '', '', #232 ) ;
#200 = PERSON_AND_ORGANIZATION ( #7, #139 ) ;
#201 = ADVANCED_FACE ( 'NONE', ( #8 ), #81, .F. ) ;
#202 = EDGE_LOOP ( 'NONE', ( #220, #38, #112, #227 ) ) ;
#203 = CC_DESIGN_APPROVAL ( #191, ( #176 ) ) ;
#204 = SHAPE_DEFINITION_REPRESENTATION ( #213, #196 ) ;
#205 = DIRECTION ( 'NONE',  ( -1.000000000000000000, -0.0000000000000000000, -0.0000000000000000000 ) ) ;
#206 = PERSON_AND_ORGANIZATION_ROLE ( 'design_owner' ) ;
#207 = APPROVAL_PERSON_ORGANIZATION ( #48, #150, #71 ) ;
#208 = DIRECTION ( 'NONE',  ( 1.000000000000000000, 0.0000000000000000000, 0.0000000000000000000 ) ) ;
#209 = UNCERTAINTY_MEASURE_WITH_UNIT (LENGTH_MEASURE( 1.000000000000000100E-005 ), #153, 'distance_accuracy_value', 'NONE');
#210 = ORIENTED_EDGE ( 'NONE', *, *, #72, .F. ) ;
#211 = VECTOR ( 'NONE', #226, 1000.000000000000000 ) ;
#212 = LINE ( 'NONE', #55, #166 ) ;
#213 = PRODUCT_DEFINITION_SHAPE ( 'NONE', 'NONE',  #176 ) ;
#214 = EDGE_CURVE ( 'NONE', #148, #37, #212, .T. ) ;
#215 = VERTEX_POINT ( 'NONE', #4 ) ;
#216 = CC_DESIGN_PERSON_AND_ORGANIZATION_ASSIGNMENT ( #230, #189, ( #199 ) ) ;
#217 = ORIENTED_EDGE ( 'NONE', *, *, #27, .F. ) ;
#218 = CC_DESIGN_PERSON_AND_ORGANIZATION_ASSIGNMENT ( #200, #234, ( #176 ) ) ;
#219 = LOCAL_TIME ( 12, 1, 38.00000000000000000, #85 ) ;
#220 = ORIENTED_EDGE ( 'NONE', *, *, #46, .T. ) ;
#221 = CARTESIAN_POINT ( 'NONE',  ( 63.50000000000000000, -89.00000000000000000, -1.500000000000000000 ) ) ;
#222 = CARTESIAN_POINT ( 'NONE',  ( -63.50000000000000000, -89.00000000000000000, 1.500000000000000000 ) ) ;
#223 = CARTESIAN_POINT ( 'NONE',  ( 63.50000000000000000, 89.00000000000000000, -1.500000000000000000 ) ) ;
#224 = ADVANCED_FACE ( 'NONE', ( #143 ), #54, .F. ) ;
#225 = CARTESIAN_POINT ( 'NONE',  ( 63.50000000000000000, -89.00000000000000000, 1.500000000000000000 ) ) ;
#226 = DIRECTION ( 'NONE',  ( -0.0000000000000000000, -0.0000000000000000000, -1.000000000000000000 ) ) ;
#227 = ORIENTED_EDGE ( 'NONE', *, *, #19, .T. ) ;
#228 = EDGE_CURVE ( 'NONE', #75, #148, #76, .T. ) ;
#229 = CC_DESIGN_DATE_AND_TIME_ASSIGNMENT ( #194, #88, ( #199 ) ) ;
#230 = PERSON_AND_ORGANIZATION ( #7, #139 ) ;
#231 = DIRECTION ( 'NONE',  ( -1.000000000000000000, 0.0000000000000000000, 0.0000000000000000000 ) ) ;
#232 = SECURITY_CLASSIFICATION_LEVEL ( 'unclassified' ) ;
#233 = ORIENTED_EDGE ( 'NONE', *, *, #46, .F. ) ;
#234 = PERSON_AND_ORGANIZATION_ROLE ( 'creator' ) ;
#235 = VECTOR ( 'NONE', #61, 1000.000000000000000 ) ;
#236 = CC_DESIGN_DATE_AND_TIME_ASSIGNMENT ( #83, #87, ( #176 ) ) ;
#237 = APPROVAL_DATE_TIME ( #136, #150 ) ;
ENDSEC;
END-ISO-10303-21;
