ISO-10303-21;
HEADER;
FILE_DESCRIPTION (( 'STEP AP203' ),
    '1' );
FILE_NAME ('Web Model 68379_48908.step',
    '2017-03-01T19:08:37',
    ( '' ),
    ( '' ),
    'SwSTEP 2.0',
    'SolidWorks 2016',
    '' );
FILE_SCHEMA (( 'CONFIG_CONTROL_DESIGN' ));
ENDSEC;

DATA;
#1 = APPLICATION_PROTOCOL_DEFINITION ( 'international standard', 'config_control_design', 1994, #85 ) ;
#2 = APPROVAL_ROLE ( '' ) ;
#3 = LOCAL_TIME ( 14, 8, 37.00000000000000000, #24 ) ;
#4 = DIRECTION ( 'NONE',  ( 0.0000000000000000000, 0.0000000000000000000, 1.000000000000000000 ) ) ;
#5 = CC_DESIGN_PERSON_AND_ORGANIZATION_ASSIGNMENT ( #127, #220, ( #205 ) ) ;
#6 = DATE_AND_TIME ( #192, #31 ) ;
#7 = EDGE_CURVE ( 'NONE', #59, #111, #38, .T. ) ;
#8 = DIRECTION ( 'NONE',  ( -0.0000000000000000000, -0.0000000000000000000, -1.000000000000000000 ) ) ;
#9 = PERSON_AND_ORGANIZATION_ROLE ( 'classification_officer' ) ;
#10 = ADVANCED_FACE ( 'NONE', ( #105 ), #90, .T. ) ;
#11 = PERSON_AND_ORGANIZATION ( #93, #185 ) ;
#12 =( LENGTH_UNIT ( ) NAMED_UNIT ( * ) SI_UNIT ( .MILLI., .METRE. ) );
#13 = COORDINATED_UNIVERSAL_TIME_OFFSET ( 5, 0, .BEHIND. ) ;
#14 = EDGE_CURVE ( 'NONE', #111, #159, #126, .T. ) ;
#15 = CARTESIAN_POINT ( 'NONE',  ( 37.50000000000000000, 37.49999999999999300, 0.0000000000000000000 ) ) ;
#16 = CARTESIAN_POINT ( 'NONE',  ( 37.50000000000000000, 37.49999999999999300, 3.000000000000000000 ) ) ;
#17 = DIRECTION ( 'NONE',  ( 1.000000000000000000, 1.850371707708594300E-016, -0.0000000000000000000 ) ) ;
#18 = LINE ( 'NONE', #213, #227 ) ;
#19 = LINE ( 'NONE', #16, #214 ) ;
#20 = DIRECTION ( 'NONE',  ( -0.0000000000000000000, -0.0000000000000000000, -1.000000000000000000 ) ) ;
#21 = CC_DESIGN_DATE_AND_TIME_ASSIGNMENT ( #120, #25, ( #205 ) ) ;
#22 = APPROVAL_PERSON_ORGANIZATION ( #114, #122, #2 ) ;
#23 = APPROVAL_STATUS ( 'not_yet_approved' ) ;
#24 = COORDINATED_UNIVERSAL_TIME_OFFSET ( 5, 0, .BEHIND. ) ;
#25 = DATE_TIME_ROLE ( 'creation_date' ) ;
#26 = LINE ( 'NONE', #154, #28 ) ;
#27 = CARTESIAN_POINT ( 'NONE',  ( -37.50000000000000000, -37.50000000000000700, 3.000000000000000000 ) ) ;
#28 = VECTOR ( 'NONE', #20, 1000.000000000000000 ) ;
#29 = EDGE_LOOP ( 'NONE', ( #37, #149, #95, #210 ) ) ;
#30 = FACE_OUTER_BOUND ( 'NONE', #201, .T. ) ;
#31 = LOCAL_TIME ( 14, 8, 37.00000000000000000, #173 ) ;
#32 = DIRECTION ( 'NONE',  ( -0.0000000000000000000, -0.0000000000000000000, -1.000000000000000000 ) ) ;
#33 = APPROVAL_PERSON_ORGANIZATION ( #204, #47, #196 ) ;
#34 = PRODUCT_DEFINITION_FORMATION_WITH_SPECIFIED_SOURCE ( 'ANY', '', #63, .NOT_KNOWN. ) ;
#35 = DIRECTION ( 'NONE',  ( 0.0000000000000000000, -1.000000000000000000, 0.0000000000000000000 ) ) ;
#36 = DIRECTION ( 'NONE',  ( 0.0000000000000000000, 0.0000000000000000000, -1.000000000000000000 ) ) ;
#37 = ORIENTED_EDGE ( 'NONE', *, *, #86, .T. ) ;
#38 = LINE ( 'NONE', #141, #70 ) ;
#39 = CARTESIAN_POINT ( 'NONE',  ( 37.50000000000000000, -37.49999999999999300, 3.000000000000000000 ) ) ;
#40 = CALENDAR_DATE ( 2017, 1, 3 ) ;
#41 = ORIENTED_EDGE ( 'NONE', *, *, #174, .T. ) ;
#42 = DIRECTION ( 'NONE',  ( 0.0000000000000000000, 0.0000000000000000000, 1.000000000000000000 ) ) ;
#43 = PERSON_AND_ORGANIZATION ( #93, #185 ) ;
#44 = PLANE ( 'NONE',  #169 ) ;
#45 = LOCAL_TIME ( 14, 8, 37.00000000000000000, #182 ) ;
#46 = PERSON_AND_ORGANIZATION ( #93, #185 ) ;
#47 = APPROVAL ( #23, 'UNSPECIFIED' ) ;
#48 = PERSON_AND_ORGANIZATION ( #93, #185 ) ;
#49 =( NAMED_UNIT ( * ) SI_UNIT ( $, .STERADIAN. ) SOLID_ANGLE_UNIT ( ) );
#50 = DIRECTION ( 'NONE',  ( 1.000000000000000000, 9.251858538542970300E-017, -0.0000000000000000000 ) ) ;
#51 = ORIENTED_EDGE ( 'NONE', *, *, #186, .F. ) ;
#52 = CALENDAR_DATE ( 2017, 1, 3 ) ;
#53 = AXIS2_PLACEMENT_3D ( 'NONE', #236, #212, #139 ) ;
#54 = ORIENTED_EDGE ( 'NONE', *, *, #103, .T. ) ;
#55 = PRODUCT_DEFINITION_SHAPE ( 'NONE', 'NONE',  #205 ) ;
#56 = CARTESIAN_POINT ( 'NONE',  ( -37.50000000000000700, 37.49999999999999300, 3.000000000000000000 ) ) ;
#57 = DIRECTION ( 'NONE',  ( -1.000000000000000000, 0.0000000000000000000, -0.0000000000000000000 ) ) ;
#58 = VECTOR ( 'NONE', #121, 1000.000000000000000 ) ;
#59 = VERTEX_POINT ( 'NONE', #56 ) ;
#60 = CC_DESIGN_APPROVAL ( #47, ( #34 ) ) ;
#61 = ORIENTED_EDGE ( 'NONE', *, *, #174, .F. ) ;
#62 = ORIENTED_EDGE ( 'NONE', *, *, #160, .T. ) ;
#63 = PRODUCT ( 'Web Model 68379_48908', 'Web Model 68379_48908', '', ( #229 ) ) ;
#64 = CARTESIAN_POINT ( 'NONE',  ( 37.50000000000000000, 37.49999999999999300, 0.0000000000000000000 ) ) ;
#65 = APPROVAL_STATUS ( 'not_yet_approved' ) ;
#66 = LINE ( 'NONE', #15, #58 ) ;
#67 = APPLICATION_PROTOCOL_DEFINITION ( 'international standard', 'config_control_design', 1994, #170 ) ;
#68 = ORIENTED_EDGE ( 'NONE', *, *, #112, .F. ) ;
#69 = CC_DESIGN_PERSON_AND_ORGANIZATION_ASSIGNMENT ( #46, #83, ( #34 ) ) ;
#70 = VECTOR ( 'NONE', #71, 1000.000000000000000 ) ;
#71 = DIRECTION ( 'NONE',  ( 9.251858538542971600E-017, -1.000000000000000000, 0.0000000000000000000 ) ) ;
#72 = DATE_AND_TIME ( #40, #116 ) ;
#73 = VECTOR ( 'NONE', #156, 1000.000000000000000 ) ;
#74 = DIRECTION ( 'NONE',  ( -1.000000000000000000, -1.850371707708594100E-016, 0.0000000000000000000 ) ) ;
#75 = ORIENTED_EDGE ( 'NONE', *, *, #137, .F. ) ;
#76 = AXIS2_PLACEMENT_3D ( 'NONE', #180, #140, #74 ) ;
#77 = DIRECTION ( 'NONE',  ( -1.000000000000000000, 0.0000000000000000000, 0.0000000000000000000 ) ) ;
#78 = APPROVAL_STATUS ( 'not_yet_approved' ) ;
#79 =( NAMED_UNIT ( * ) PLANE_ANGLE_UNIT ( ) SI_UNIT ( $, .RADIAN. ) );
#80 = MANIFOLD_SOLID_BREP ( 'Extrude1', #206 ) ;
#81 = CC_DESIGN_PERSON_AND_ORGANIZATION_ASSIGNMENT ( #43, #164, ( #34 ) ) ;
#82 = FACE_OUTER_BOUND ( 'NONE', #218, .T. ) ;
#83 = PERSON_AND_ORGANIZATION_ROLE ( 'creator' ) ;
#84 = ORIENTED_EDGE ( 'NONE', *, *, #186, .T. ) ;
#85 = APPLICATION_CONTEXT ( 'configuration controlled 3d designs of mechanical parts and assemblies' ) ;
#86 = EDGE_CURVE ( 'NONE', #91, #132, #18, .T. ) ;
#87 = ORIENTED_EDGE ( 'NONE', *, *, #124, .T. ) ;
#88 = ORIENTED_EDGE ( 'NONE', *, *, #94, .F. ) ;
#89 = CARTESIAN_POINT ( 'NONE',  ( 0.0000000000000000000, 0.0000000000000000000, 0.0000000000000000000 ) ) ;
#90 = PLANE ( 'NONE',  #53 ) ;
#91 = VERTEX_POINT ( 'NONE', #211 ) ;
#92 = VERTEX_POINT ( 'NONE', #107 ) ;
#93 = PERSON ( 'UNSPECIFIED', 'UNSPECIFIED', 'UNSPECIFIED', ('UNSPECIFIED'), ('UNSPECIFIED'), ('UNSPECIFIED') ) ;
#94 = EDGE_CURVE ( 'NONE', #92, #208, #19, .T. ) ;
#95 = ORIENTED_EDGE ( 'NONE', *, *, #14, .F. ) ;
#96 = SECURITY_CLASSIFICATION ( '', '', #189 ) ;
#97 = ORIENTED_EDGE ( 'NONE', *, *, #7, .F. ) ;
#98 = AXIS2_PLACEMENT_3D ( 'NONE', #199, #36, #57 ) ;
#99 = APPROVAL_PERSON_ORGANIZATION ( #48, #216, #184 ) ;
#100 = CARTESIAN_POINT ( 'NONE',  ( 37.50000000000000000, 37.49999999999999300, 3.000000000000000000 ) ) ;
#101 = CC_DESIGN_PERSON_AND_ORGANIZATION_ASSIGNMENT ( #11, #9, ( #96 ) ) ;
#102 = ORIENTED_EDGE ( 'NONE', *, *, #7, .T. ) ;
#103 = EDGE_CURVE ( 'NONE', #159, #92, #166, .T. ) ;
#104 = PLANE ( 'NONE',  #142 ) ;
#105 = FACE_OUTER_BOUND ( 'NONE', #191, .T. ) ;
#106 = DIRECTION ( 'NONE',  ( 1.000000000000000000, 1.850371707708594300E-016, -0.0000000000000000000 ) ) ;
#107 = CARTESIAN_POINT ( 'NONE',  ( 37.50000000000000000, 37.49999999999999300, 3.000000000000000000 ) ) ;
#108 = DIRECTION ( 'NONE',  ( -0.0000000000000000000, -0.0000000000000000000, -1.000000000000000000 ) ) ;
#109 = FACE_OUTER_BOUND ( 'NONE', #29, .T. ) ;
#110 = CC_DESIGN_DATE_AND_TIME_ASSIGNMENT ( #72, #225, ( #96 ) ) ;
#111 = VERTEX_POINT ( 'NONE', #215 ) ;
#112 = EDGE_CURVE ( 'NONE', #208, #157, #66, .T. ) ;
#113 = LINE ( 'NONE', #27, #128 ) ;
#114 = PERSON_AND_ORGANIZATION ( #93, #185 ) ;
#115 = LINE ( 'NONE', #64, #237 ) ;
#116 = LOCAL_TIME ( 14, 8, 37.00000000000000000, #230 ) ;
#117 = CALENDAR_DATE ( 2017, 1, 3 ) ;
#118 = AXIS2_PLACEMENT_3D ( 'NONE', #100, #77, #42 ) ;
#119 = CARTESIAN_POINT ( 'NONE',  ( 37.50000000000000000, 37.49999999999999300, 3.000000000000000000 ) ) ;
#120 = DATE_AND_TIME ( #52, #3 ) ;
#121 = DIRECTION ( 'NONE',  ( -1.000000000000000000, 0.0000000000000000000, 0.0000000000000000000 ) ) ;
#122 = APPROVAL ( #78, 'UNSPECIFIED' ) ;
#123 = CARTESIAN_POINT ( 'NONE',  ( -37.50000000000000700, 37.49999999999999300, 0.0000000000000000000 ) ) ;
#124 = EDGE_CURVE ( 'NONE', #92, #59, #133, .T. ) ;
#125 = CARTESIAN_POINT ( 'NONE',  ( 37.50000000000000000, 37.49999999999999300, 3.000000000000000000 ) ) ;
#126 = LINE ( 'NONE', #39, #203 ) ;
#127 = PERSON_AND_ORGANIZATION ( #93, #185 ) ;
#128 = VECTOR ( 'NONE', #8, 1000.000000000000000 ) ;
#129 = ADVANCED_FACE ( 'NONE', ( #109 ), #200, .F. ) ;
#130 = CARTESIAN_POINT ( 'NONE',  ( 37.50000000000000000, 37.49999999999999300, 0.0000000000000000000 ) ) ;
#131 = CARTESIAN_POINT ( 'NONE',  ( -37.50000000000000700, 37.49999999999999300, 0.0000000000000000000 ) ) ;
#132 = VERTEX_POINT ( 'NONE', #235 ) ;
#133 = LINE ( 'NONE', #125, #73 ) ;
#134 = ADVANCED_FACE ( 'NONE', ( #194 ), #178, .F. ) ;
#135 = PLANE ( 'NONE',  #118 ) ;
#136 = CC_DESIGN_APPROVAL ( #122, ( #96 ) ) ;
#137 = EDGE_CURVE ( 'NONE', #111, #91, #113, .T. ) ;
#138 = ORIENTED_EDGE ( 'NONE', *, *, #112, .T. ) ;
#139 = DIRECTION ( 'NONE',  ( -1.000000000000000000, 0.0000000000000000000, -0.0000000000000000000 ) ) ;
#140 = DIRECTION ( 'NONE',  ( -1.850371707708594100E-016, 1.000000000000000000, 0.0000000000000000000 ) ) ;
#141 = CARTESIAN_POINT ( 'NONE',  ( -37.50000000000000700, 37.49999999999999300, 3.000000000000000000 ) ) ;
#142 = AXIS2_PLACEMENT_3D ( 'NONE', #152, #35, #144 ) ;
#143 = CC_DESIGN_SECURITY_CLASSIFICATION ( #96, ( #34 ) ) ;
#144 = DIRECTION ( 'NONE',  ( 0.0000000000000000000, -0.0000000000000000000, -1.000000000000000000 ) ) ;
#145 = EDGE_LOOP ( 'NONE', ( #84, #88, #147, #207 ) ) ;
#146 = ORIENTED_EDGE ( 'NONE', *, *, #124, .F. ) ;
#147 = ORIENTED_EDGE ( 'NONE', *, *, #103, .F. ) ;
#148 = EDGE_CURVE ( 'NONE', #159, #132, #26, .T. ) ;
#149 = ORIENTED_EDGE ( 'NONE', *, *, #148, .F. ) ;
#150 = DIRECTION ( 'NONE',  ( -0.0000000000000000000, 1.000000000000000000, -0.0000000000000000000 ) ) ;
#151 = ADVANCED_FACE ( 'NONE', ( #222 ), #135, .F. ) ;
#152 = CARTESIAN_POINT ( 'NONE',  ( 37.50000000000000000, 37.49999999999999300, 3.000000000000000000 ) ) ;
#153 = SHAPE_DEFINITION_REPRESENTATION ( #55, #167 ) ;
#154 = CARTESIAN_POINT ( 'NONE',  ( 37.50000000000000000, -37.49999999999999300, 3.000000000000000000 ) ) ;
#155 =( GEOMETRIC_REPRESENTATION_CONTEXT ( 3 ) GLOBAL_UNCERTAINTY_ASSIGNED_CONTEXT ( ( #187 ) ) GLOBAL_UNIT_ASSIGNED_CONTEXT ( ( #12, #79, #49 ) ) REPRESENTATION_CONTEXT ( 'NONE', 'WORKASPACE' ) );
#156 = DIRECTION ( 'NONE',  ( -1.000000000000000000, 0.0000000000000000000, 0.0000000000000000000 ) ) ;
#157 = VERTEX_POINT ( 'NONE', #123 ) ;
#158 = PRODUCT_RELATED_PRODUCT_CATEGORY ( 'detail', '', ( #63 ) ) ;
#159 = VERTEX_POINT ( 'NONE', #217 ) ;
#160 = EDGE_CURVE ( 'NONE', #59, #157, #188, .T. ) ;
#161 = LINE ( 'NONE', #131, #232 ) ;
#162 = CARTESIAN_POINT ( 'NONE',  ( -37.50000000000000700, 37.49999999999999300, 3.000000000000000000 ) ) ;
#163 = DATE_AND_TIME ( #117, #45 ) ;
#164 = PERSON_AND_ORGANIZATION_ROLE ( 'design_supplier' ) ;
#165 = PERSON_AND_ORGANIZATION_ROLE ( 'design_owner' ) ;
#166 = LINE ( 'NONE', #119, #233 ) ;
#167 = ADVANCED_BREP_SHAPE_REPRESENTATION ( 'Web Model 68379_48908', ( #80, #181 ), #155 ) ;
#168 = DIRECTION ( 'NONE',  ( 9.251858538542971600E-017, -1.000000000000000000, 0.0000000000000000000 ) ) ;
#169 = AXIS2_PLACEMENT_3D ( 'NONE', #176, #50, #190 ) ;
#170 = APPLICATION_CONTEXT ( 'configuration controlled 3d designs of mechanical parts and assemblies' ) ;
#171 = APPROVAL_DATE_TIME ( #163, #47 ) ;
#172 = ADVANCED_FACE ( 'NONE', ( #30 ), #104, .F. ) ;
#173 = COORDINATED_UNIVERSAL_TIME_OFFSET ( 5, 0, .BEHIND. ) ;
#174 = EDGE_CURVE ( 'NONE', #157, #91, #161, .T. ) ;
#175 = ORIENTED_EDGE ( 'NONE', *, *, #86, .F. ) ;
#176 = CARTESIAN_POINT ( 'NONE',  ( -37.50000000000000700, 37.49999999999999300, 3.000000000000000000 ) ) ;
#177 = DESIGN_CONTEXT ( 'detailed design', #170, 'design' ) ;
#178 = PLANE ( 'NONE',  #98 ) ;
#179 = DIRECTION ( 'NONE',  ( -0.0000000000000000000, 1.000000000000000000, -0.0000000000000000000 ) ) ;
#180 = CARTESIAN_POINT ( 'NONE',  ( 37.50000000000000000, -37.49999999999999300, 3.000000000000000000 ) ) ;
#181 = AXIS2_PLACEMENT_3D ( 'NONE', #89, #4, #221 ) ;
#182 = COORDINATED_UNIVERSAL_TIME_OFFSET ( 5, 0, .BEHIND. ) ;
#183 = ORIENTED_EDGE ( 'NONE', *, *, #94, .T. ) ;
#184 = APPROVAL_ROLE ( '' ) ;
#185 = ORGANIZATION ( 'UNSPECIFIED', 'UNSPECIFIED', '' ) ;
#186 = EDGE_CURVE ( 'NONE', #132, #208, #115, .T. ) ;
#187 = UNCERTAINTY_MEASURE_WITH_UNIT (LENGTH_MEASURE( 1.000000000000000100E-005 ), #12, 'distance_accuracy_value', 'NONE');
#188 = LINE ( 'NONE', #162, #209 ) ;
#189 = SECURITY_CLASSIFICATION_LEVEL ( 'unclassified' ) ;
#190 = DIRECTION ( 'NONE',  ( -9.251858538542970300E-017, 1.000000000000000000, 0.0000000000000000000 ) ) ;
#191 = EDGE_LOOP ( 'NONE', ( #61, #68, #51, #175 ) ) ;
#192 = CALENDAR_DATE ( 2017, 1, 3 ) ;
#193 = PERSON_AND_ORGANIZATION ( #93, #185 ) ;
#194 = FACE_OUTER_BOUND ( 'NONE', #224, .T. ) ;
#195 = CC_DESIGN_PERSON_AND_ORGANIZATION_ASSIGNMENT ( #193, #165, ( #63 ) ) ;
#196 = APPROVAL_ROLE ( '' ) ;
#197 = ORIENTED_EDGE ( 'NONE', *, *, #160, .F. ) ;
#198 = DATE_AND_TIME ( #228, #202 ) ;
#199 = CARTESIAN_POINT ( 'NONE',  ( -37.50000000000000000, -37.50000000000000700, 3.000000000000000000 ) ) ;
#200 = PLANE ( 'NONE',  #76 ) ;
#201 = EDGE_LOOP ( 'NONE', ( #138, #197, #146, #183 ) ) ;
#202 = LOCAL_TIME ( 14, 8, 37.00000000000000000, #13 ) ;
#203 = VECTOR ( 'NONE', #17, 1000.000000000000000 ) ;
#204 = PERSON_AND_ORGANIZATION ( #93, #185 ) ;
#205 = PRODUCT_DEFINITION ( 'UNKNOWN', '', #34, #177 ) ;
#206 = CLOSED_SHELL ( 'NONE', ( #226, #129, #151, #172, #134, #10 ) ) ;
#207 = ORIENTED_EDGE ( 'NONE', *, *, #148, .T. ) ;
#208 = VERTEX_POINT ( 'NONE', #130 ) ;
#209 = VECTOR ( 'NONE', #32, 1000.000000000000000 ) ;
#210 = ORIENTED_EDGE ( 'NONE', *, *, #137, .T. ) ;
#211 = CARTESIAN_POINT ( 'NONE',  ( -37.50000000000000000, -37.50000000000000700, 0.0000000000000000000 ) ) ;
#212 = DIRECTION ( 'NONE',  ( 0.0000000000000000000, 0.0000000000000000000, -1.000000000000000000 ) ) ;
#213 = CARTESIAN_POINT ( 'NONE',  ( 37.50000000000000000, -37.49999999999999300, 0.0000000000000000000 ) ) ;
#214 = VECTOR ( 'NONE', #108, 1000.000000000000000 ) ;
#215 = CARTESIAN_POINT ( 'NONE',  ( -37.50000000000000000, -37.50000000000000700, 3.000000000000000000 ) ) ;
#216 = APPROVAL ( #65, 'UNSPECIFIED' ) ;
#217 = CARTESIAN_POINT ( 'NONE',  ( 37.50000000000000000, -37.49999999999999300, 3.000000000000000000 ) ) ;
#218 = EDGE_LOOP ( 'NONE', ( #41, #75, #97, #62 ) ) ;
#219 = APPROVAL_DATE_TIME ( #6, #122 ) ;
#220 = PERSON_AND_ORGANIZATION_ROLE ( 'creator' ) ;
#221 = DIRECTION ( 'NONE',  ( 1.000000000000000000, 0.0000000000000000000, 0.0000000000000000000 ) ) ;
#222 = FACE_OUTER_BOUND ( 'NONE', #145, .T. ) ;
#223 = APPROVAL_DATE_TIME ( #198, #216 ) ;
#224 = EDGE_LOOP ( 'NONE', ( #102, #234, #54, #87 ) ) ;
#225 = DATE_TIME_ROLE ( 'classification_date' ) ;
#226 = ADVANCED_FACE ( 'NONE', ( #82 ), #44, .F. ) ;
#227 = VECTOR ( 'NONE', #106, 1000.000000000000000 ) ;
#228 = CALENDAR_DATE ( 2017, 1, 3 ) ;
#229 = MECHANICAL_CONTEXT ( 'NONE', #85, 'mechanical' ) ;
#230 = COORDINATED_UNIVERSAL_TIME_OFFSET ( 5, 0, .BEHIND. ) ;
#231 = CC_DESIGN_APPROVAL ( #216, ( #205 ) ) ;
#232 = VECTOR ( 'NONE', #168, 1000.000000000000000 ) ;
#233 = VECTOR ( 'NONE', #179, 1000.000000000000000 ) ;
#234 = ORIENTED_EDGE ( 'NONE', *, *, #14, .T. ) ;
#235 = CARTESIAN_POINT ( 'NONE',  ( 37.50000000000000000, -37.49999999999999300, 0.0000000000000000000 ) ) ;
#236 = CARTESIAN_POINT ( 'NONE',  ( -37.50000000000000000, -37.50000000000000700, 0.0000000000000000000 ) ) ;
#237 = VECTOR ( 'NONE', #150, 1000.000000000000000 ) ;
ENDSEC;
END-ISO-10303-21;
