ISO-10303-21;
HEADER;
FILE_DESCRIPTION (( 'STEP AP203' ),
    '1' );
FILE_NAME ('Web Model 64088.STEP',
    '2017-01-31T19:03:56',
    ( '' ),
    ( '' ),
    'SwSTEP 2.0',
    'SolidWorks 2016',
    '' );
FILE_SCHEMA (( 'CONFIG_CONTROL_DESIGN' ));
ENDSEC;

DATA;
#1 = EDGE_CURVE ( 'NONE', #231, #17, #141, .T. ) ;
#2 = ORGANIZATION ( 'UNSPECIFIED', 'UNSPECIFIED', '' ) ;
#3 = LINE ( 'NONE', #225, #228 ) ;
#4 = DIRECTION ( 'NONE',  ( -0.0000000000000000000, -1.000000000000000000, -0.0000000000000000000 ) ) ;
#5 = AXIS2_PLACEMENT_3D ( 'NONE', #234, #170, #111 ) ;
#6 = EDGE_CURVE ( 'NONE', #231, #197, #209, .T. ) ;
#7 = AXIS2_PLACEMENT_3D ( 'NONE', #30, #192, #133 ) ;
#8 = ADVANCED_FACE ( 'NONE', ( #66 ), #110, .F. ) ;
#9 = SHAPE_DEFINITION_REPRESENTATION ( #187, #128 ) ;
#10 = CALENDAR_DATE ( 2017, 31, 1 ) ;
#11 = ORIENTED_EDGE ( 'NONE', *, *, #198, .F. ) ;
#12 = DIRECTION ( 'NONE',  ( 1.000000000000000000, 0.0000000000000000000, 0.0000000000000000000 ) ) ;
#13 = DIRECTION ( 'NONE',  ( 1.000000000000000000, 0.0000000000000000000, 0.0000000000000000000 ) ) ;
#14 = CC_DESIGN_APPROVAL ( #121, ( #89 ) ) ;
#15 = APPROVAL_PERSON_ORGANIZATION ( #229, #158, #68 ) ;
#16 = VERTEX_POINT ( 'NONE', #163 ) ;
#17 = VERTEX_POINT ( 'NONE', #22 ) ;
#18 = EDGE_CURVE ( 'NONE', #169, #231, #194, .T. ) ;
#19 = EDGE_LOOP ( 'NONE', ( #179, #78, #102, #61 ) ) ;
#20 = CARTESIAN_POINT ( 'NONE',  ( 2.500000000000002200, -2.500000000000002200, 1.000000000000000000 ) ) ;
#21 = APPLICATION_PROTOCOL_DEFINITION ( 'international standard', 'config_control_design', 1994, #27 ) ;
#22 = CARTESIAN_POINT ( 'NONE',  ( -2.499999999999988500, 2.500000000000002200, 1.000000000000000000 ) ) ;
#23 = VECTOR ( 'NONE', #70, 1000.000000000000000 ) ;
#24 = DATE_TIME_ROLE ( 'classification_date' ) ;
#25 = AXIS2_PLACEMENT_3D ( 'NONE', #232, #175, #12 ) ;
#26 = ORIENTED_EDGE ( 'NONE', *, *, #159, .F. ) ;
#27 = APPLICATION_CONTEXT ( 'configuration controlled 3d designs of mechanical parts and assemblies' ) ;
#28 = VECTOR ( 'NONE', #183, 1000.000000000000000 ) ;
#29 = EDGE_LOOP ( 'NONE', ( #126, #26, #139, #114 ) ) ;
#30 = CARTESIAN_POINT ( 'NONE',  ( -2.499999999999988500, 2.500000000000002200, 1.000000000000000000 ) ) ;
#31 = CC_DESIGN_APPROVAL ( #117, ( #56 ) ) ;
#32 = DIRECTION ( 'NONE',  ( 0.0000000000000000000, 1.000000000000000000, 0.0000000000000000000 ) ) ;
#33 = CARTESIAN_POINT ( 'NONE',  ( -2.499999999999988500, -2.500000000000002200, 1.000000000000000000 ) ) ;
#34 = CARTESIAN_POINT ( 'NONE',  ( -2.499999999999988500, 2.500000000000002200, 0.0000000000000000000 ) ) ;
#35 = DATE_AND_TIME ( #60, #100 ) ;
#36 = APPROVAL_DATE_TIME ( #98, #121 ) ;
#37 = ORIENTED_EDGE ( 'NONE', *, *, #159, .T. ) ;
#38 = FACE_OUTER_BOUND ( 'NONE', #29, .T. ) ;
#39 = SECURITY_CLASSIFICATION ( '', '', #226 ) ;
#40 = EDGE_CURVE ( 'NONE', #119, #197, #181, .T. ) ;
#41 = PERSON_AND_ORGANIZATION_ROLE ( 'design_supplier' ) ;
#42 = APPROVAL_STATUS ( 'not_yet_approved' ) ;
#43 = ORIENTED_EDGE ( 'NONE', *, *, #214, .T. ) ;
#44 = MANIFOLD_SOLID_BREP ( 'Extrude1', #190 ) ;
#45 = EDGE_CURVE ( 'NONE', #169, #119, #58, .T. ) ;
#46 = ORIENTED_EDGE ( 'NONE', *, *, #214, .F. ) ;
#47 = FACE_OUTER_BOUND ( 'NONE', #161, .T. ) ;
#48 = CARTESIAN_POINT ( 'NONE',  ( -2.499999999999988500, -2.500000000000002200, 1.000000000000000000 ) ) ;
#49 = CARTESIAN_POINT ( 'NONE',  ( -2.499999999999988500, 2.500000000000002200, 1.000000000000000000 ) ) ;
#50 = DIRECTION ( 'NONE',  ( -0.0000000000000000000, -0.0000000000000000000, -1.000000000000000000 ) ) ;
#51 = FACE_OUTER_BOUND ( 'NONE', #152, .T. ) ;
#52 = CC_DESIGN_DATE_AND_TIME_ASSIGNMENT ( #35, #24, ( #39 ) ) ;
#53 = CARTESIAN_POINT ( 'NONE',  ( -2.499999999999988500, -2.500000000000002200, 0.0000000000000000000 ) ) ;
#54 = PERSON_AND_ORGANIZATION ( #120, #2 ) ;
#55 = VECTOR ( 'NONE', #74, 1000.000000000000000 ) ;
#56 = PRODUCT_DEFINITION_FORMATION_WITH_SPECIFIED_SOURCE ( 'ANY', '', #79, .NOT_KNOWN. ) ;
#57 = DIRECTION ( 'NONE',  ( -0.0000000000000000000, -0.0000000000000000000, -1.000000000000000000 ) ) ;
#58 = LINE ( 'NONE', #20, #28 ) ;
#59 = CC_DESIGN_PERSON_AND_ORGANIZATION_ASSIGNMENT ( #54, #165, ( #56 ) ) ;
#60 = CALENDAR_DATE ( 2017, 31, 1 ) ;
#61 = ORIENTED_EDGE ( 'NONE', *, *, #45, .T. ) ;
#62 = CARTESIAN_POINT ( 'NONE',  ( 2.500000000000002200, -2.500000000000002200, 0.0000000000000000000 ) ) ;
#63 = CARTESIAN_POINT ( 'NONE',  ( -2.499999999999988500, -2.500000000000002200, 0.0000000000000000000 ) ) ;
#64 = ORIENTED_EDGE ( 'NONE', *, *, #140, .F. ) ;
#65 = COORDINATED_UNIVERSAL_TIME_OFFSET ( 5, 0, .BEHIND. ) ;
#66 = FACE_OUTER_BOUND ( 'NONE', #19, .T. ) ;
#67 = ORIENTED_EDGE ( 'NONE', *, *, #223, .F. ) ;
#68 = APPROVAL_ROLE ( '' ) ;
#69 = CC_DESIGN_PERSON_AND_ORGANIZATION_ASSIGNMENT ( #205, #84, ( #39 ) ) ;
#70 = DIRECTION ( 'NONE',  ( -1.000000000000000000, -0.0000000000000000000, -0.0000000000000000000 ) ) ;
#71 = COORDINATED_UNIVERSAL_TIME_OFFSET ( 5, 0, .BEHIND. ) ;
#72 = EDGE_CURVE ( 'NONE', #185, #149, #138, .T. ) ;
#73 = CARTESIAN_POINT ( 'NONE',  ( -2.499999999999988500, -2.500000000000002200, 1.000000000000000000 ) ) ;
#74 = DIRECTION ( 'NONE',  ( 1.000000000000000000, 0.0000000000000000000, 0.0000000000000000000 ) ) ;
#75 = DIRECTION ( 'NONE',  ( 0.0000000000000000000, -1.000000000000000000, 0.0000000000000000000 ) ) ;
#76 = AXIS2_PLACEMENT_3D ( 'NONE', #115, #75, #233 ) ;
#77 = APPROVAL_PERSON_ORGANIZATION ( #168, #121, #125 ) ;
#78 = ORIENTED_EDGE ( 'NONE', *, *, #6, .F. ) ;
#79 = PRODUCT ( 'Web Model 64088', 'Web Model 64088', '', ( #113 ) ) ;
#80 = CC_DESIGN_APPROVAL ( #158, ( #39 ) ) ;
#81 = CARTESIAN_POINT ( 'NONE',  ( 2.500000000000002200, 2.500000000000002200, 1.000000000000000000 ) ) ;
#82 = DATE_AND_TIME ( #180, #188 ) ;
#83 = VECTOR ( 'NONE', #86, 1000.000000000000000 ) ;
#84 = PERSON_AND_ORGANIZATION_ROLE ( 'classification_officer' ) ;
#85 = EDGE_CURVE ( 'NONE', #197, #185, #3, .T. ) ;
#86 = DIRECTION ( 'NONE',  ( 0.0000000000000000000, 1.000000000000000000, 0.0000000000000000000 ) ) ;
#87 = APPROVAL_STATUS ( 'not_yet_approved' ) ;
#88 = VECTOR ( 'NONE', #171, 1000.000000000000000 ) ;
#89 = PRODUCT_DEFINITION ( 'UNKNOWN', '', #56, #199 ) ;
#90 = LOCAL_TIME ( 14, 3, 56.00000000000000000, #123 ) ;
#91 = EDGE_LOOP ( 'NONE', ( #156, #112, #64, #216 ) ) ;
#92 = CARTESIAN_POINT ( 'NONE',  ( 2.500000000000002200, 2.500000000000002200, 1.000000000000000000 ) ) ;
#93 = DIRECTION ( 'NONE',  ( -1.000000000000000000, 0.0000000000000000000, -0.0000000000000000000 ) ) ;
#94 = LINE ( 'NONE', #33, #164 ) ;
#95 = AXIS2_PLACEMENT_3D ( 'NONE', #73, #32, #153 ) ;
#96 =( NAMED_UNIT ( * ) PLANE_ANGLE_UNIT ( ) SI_UNIT ( $, .RADIAN. ) );
#97 = APPLICATION_PROTOCOL_DEFINITION ( 'international standard', 'config_control_design', 1994, #213 ) ;
#98 = DATE_AND_TIME ( #217, #137 ) ;
#99 = CC_DESIGN_PERSON_AND_ORGANIZATION_ASSIGNMENT ( #224, #127, ( #89 ) ) ;
#100 = LOCAL_TIME ( 14, 3, 56.00000000000000000, #71 ) ;
#101 = COORDINATED_UNIVERSAL_TIME_OFFSET ( 5, 0, .BEHIND. ) ;
#102 = ORIENTED_EDGE ( 'NONE', *, *, #18, .F. ) ;
#103 = CARTESIAN_POINT ( 'NONE',  ( -2.499999999999988500, -2.500000000000002200, 0.0000000000000000000 ) ) ;
#104 = APPROVAL_ROLE ( '' ) ;
#105 = APPROVAL_STATUS ( 'not_yet_approved' ) ;
#106 = VECTOR ( 'NONE', #4, 1000.000000000000000 ) ;
#107 = CC_DESIGN_PERSON_AND_ORGANIZATION_ASSIGNMENT ( #155, #235, ( #79 ) ) ;
#108 = ADVANCED_FACE ( 'NONE', ( #122 ), #150, .F. ) ;
#109 = ADVANCED_FACE ( 'NONE', ( #38 ), #208, .F. ) ;
#110 = PLANE ( 'NONE',  #222 ) ;
#111 = DIRECTION ( 'NONE',  ( 0.0000000000000000000, 0.0000000000000000000, -1.000000000000000000 ) ) ;
#112 = ORIENTED_EDGE ( 'NONE', *, *, #45, .F. ) ;
#113 = MECHANICAL_CONTEXT ( 'NONE', #213, 'mechanical' ) ;
#114 = ORIENTED_EDGE ( 'NONE', *, *, #6, .T. ) ;
#115 = CARTESIAN_POINT ( 'NONE',  ( -2.499999999999988500, 2.500000000000002200, 1.000000000000000000 ) ) ;
#116 = CARTESIAN_POINT ( 'NONE',  ( -2.499999999999988500, -2.500000000000002200, 1.000000000000000000 ) ) ;
#117 = APPROVAL ( #87, 'UNSPECIFIED' ) ;
#118 = APPROVAL_PERSON_ORGANIZATION ( #236, #117, #104 ) ;
#119 = VERTEX_POINT ( 'NONE', #62 ) ;
#120 = PERSON ( 'UNSPECIFIED', 'UNSPECIFIED', 'UNSPECIFIED', ('UNSPECIFIED'), ('UNSPECIFIED'), ('UNSPECIFIED') ) ;
#121 = APPROVAL ( #105, 'UNSPECIFIED' ) ;
#122 = FACE_OUTER_BOUND ( 'NONE', #182, .T. ) ;
#123 = COORDINATED_UNIVERSAL_TIME_OFFSET ( 5, 0, .BEHIND. ) ;
#124 = VECTOR ( 'NONE', #50, 1000.000000000000000 ) ;
#125 = APPROVAL_ROLE ( '' ) ;
#126 = ORIENTED_EDGE ( 'NONE', *, *, #85, .T. ) ;
#127 = PERSON_AND_ORGANIZATION_ROLE ( 'creator' ) ;
#128 = ADVANCED_BREP_SHAPE_REPRESENTATION ( 'Web Model 64088', ( #44, #25 ), #237 ) ;
#129 = CARTESIAN_POINT ( 'NONE',  ( -2.499999999999988500, 2.500000000000002200, 1.000000000000000000 ) ) ;
#130 = DATE_TIME_ROLE ( 'creation_date' ) ;
#131 = APPROVAL_DATE_TIME ( #82, #117 ) ;
#132 = VECTOR ( 'NONE', #13, 1000.000000000000000 ) ;
#133 = DIRECTION ( 'NONE',  ( -1.000000000000000000, 0.0000000000000000000, -0.0000000000000000000 ) ) ;
#134 = PLANE ( 'NONE',  #227 ) ;
#135 = PRODUCT_RELATED_PRODUCT_CATEGORY ( 'detail', '', ( #79 ) ) ;
#136 = CARTESIAN_POINT ( 'NONE',  ( 2.500000000000002200, 2.500000000000002200, 0.0000000000000000000 ) ) ;
#137 = LOCAL_TIME ( 14, 3, 56.00000000000000000, #147 ) ;
#138 = LINE ( 'NONE', #103, #106 ) ;
#139 = ORIENTED_EDGE ( 'NONE', *, *, #1, .F. ) ;
#140 = EDGE_CURVE ( 'NONE', #16, #169, #204, .T. ) ;
#141 = LINE ( 'NONE', #129, #23 ) ;
#142 = ORIENTED_EDGE ( 'NONE', *, *, #1, .T. ) ;
#143 = CARTESIAN_POINT ( 'NONE',  ( 2.500000000000002200, -2.500000000000002200, 0.0000000000000000000 ) ) ;
#144 = DIRECTION ( 'NONE',  ( -1.000000000000000000, -0.0000000000000000000, -0.0000000000000000000 ) ) ;
#145 = ADVANCED_FACE ( 'NONE', ( #47 ), #211, .F. ) ;
#146 = ADVANCED_FACE ( 'NONE', ( #51 ), #134, .T. ) ;
#147 = COORDINATED_UNIVERSAL_TIME_OFFSET ( 5, 0, .BEHIND. ) ;
#148 = DIRECTION ( 'NONE',  ( 0.0000000000000000000, 1.000000000000000000, 0.0000000000000000000 ) ) ;
#149 = VERTEX_POINT ( 'NONE', #53 ) ;
#150 = PLANE ( 'NONE',  #5 ) ;
#151 = LINE ( 'NONE', #48, #124 ) ;
#152 = EDGE_LOOP ( 'NONE', ( #210, #206, #202, #11 ) ) ;
#153 = DIRECTION ( 'NONE',  ( 0.0000000000000000000, -0.0000000000000000000, 1.000000000000000000 ) ) ;
#154 =( NAMED_UNIT ( * ) SI_UNIT ( $, .STERADIAN. ) SOLID_ANGLE_UNIT ( ) );
#155 = PERSON_AND_ORGANIZATION ( #120, #2 ) ;
#156 = ORIENTED_EDGE ( 'NONE', *, *, #198, .T. ) ;
#157 = ORIENTED_EDGE ( 'NONE', *, *, #72, .T. ) ;
#158 = APPROVAL ( #42, 'UNSPECIFIED' ) ;
#159 = EDGE_CURVE ( 'NONE', #17, #185, #174, .T. ) ;
#160 = APPROVAL_DATE_TIME ( #215, #158 ) ;
#161 = EDGE_LOOP ( 'NONE', ( #43, #166, #189, #142 ) ) ;
#162 = DIRECTION ( 'NONE',  ( 0.0000000000000000000, 0.0000000000000000000, 1.000000000000000000 ) ) ;
#163 = CARTESIAN_POINT ( 'NONE',  ( -2.499999999999988500, -2.500000000000002200, 1.000000000000000000 ) ) ;
#164 = VECTOR ( 'NONE', #212, 1000.000000000000000 ) ;
#165 = PERSON_AND_ORGANIZATION_ROLE ( 'creator' ) ;
#166 = ORIENTED_EDGE ( 'NONE', *, *, #140, .T. ) ;
#167 = CALENDAR_DATE ( 2017, 31, 1 ) ;
#168 = PERSON_AND_ORGANIZATION ( #120, #2 ) ;
#169 = VERTEX_POINT ( 'NONE', #230 ) ;
#170 = DIRECTION ( 'NONE',  ( 1.000000000000000000, 0.0000000000000000000, 0.0000000000000000000 ) ) ;
#171 = DIRECTION ( 'NONE',  ( -0.0000000000000000000, -0.0000000000000000000, -1.000000000000000000 ) ) ;
#172 = DIRECTION ( 'NONE',  ( 0.0000000000000000000, 0.0000000000000000000, -1.000000000000000000 ) ) ;
#173 = CC_DESIGN_PERSON_AND_ORGANIZATION_ASSIGNMENT ( #177, #41, ( #56 ) ) ;
#174 = LINE ( 'NONE', #49, #88 ) ;
#175 = DIRECTION ( 'NONE',  ( 0.0000000000000000000, 0.0000000000000000000, 1.000000000000000000 ) ) ;
#176 = UNCERTAINTY_MEASURE_WITH_UNIT (LENGTH_MEASURE( 1.000000000000000100E-005 ), #195, 'distance_accuracy_value', 'NONE');
#177 = PERSON_AND_ORGANIZATION ( #120, #2 ) ;
#178 = VECTOR ( 'NONE', #148, 1000.000000000000000 ) ;
#179 = ORIENTED_EDGE ( 'NONE', *, *, #40, .T. ) ;
#180 = CALENDAR_DATE ( 2017, 31, 1 ) ;
#181 = LINE ( 'NONE', #143, #178 ) ;
#182 = EDGE_LOOP ( 'NONE', ( #157, #67, #46, #37 ) ) ;
#183 = DIRECTION ( 'NONE',  ( -0.0000000000000000000, -0.0000000000000000000, -1.000000000000000000 ) ) ;
#184 = CC_DESIGN_SECURITY_CLASSIFICATION ( #39, ( #56 ) ) ;
#185 = VERTEX_POINT ( 'NONE', #34 ) ;
#186 = ADVANCED_FACE ( 'NONE', ( #200 ), #193, .F. ) ;
#187 = PRODUCT_DEFINITION_SHAPE ( 'NONE', 'NONE',  #89 ) ;
#188 = LOCAL_TIME ( 14, 3, 56.00000000000000000, #65 ) ;
#189 = ORIENTED_EDGE ( 'NONE', *, *, #18, .T. ) ;
#190 = CLOSED_SHELL ( 'NONE', ( #108, #186, #8, #109, #145, #146 ) ) ;
#191 = CARTESIAN_POINT ( 'NONE',  ( 2.500000000000002200, -2.500000000000002200, 1.000000000000000000 ) ) ;
#192 = DIRECTION ( 'NONE',  ( 0.0000000000000000000, 0.0000000000000000000, -1.000000000000000000 ) ) ;
#193 = PLANE ( 'NONE',  #95 ) ;
#194 = LINE ( 'NONE', #191, #83 ) ;
#195 =( LENGTH_UNIT ( ) NAMED_UNIT ( * ) SI_UNIT ( .MILLI., .METRE. ) );
#196 = DATE_AND_TIME ( #10, #90 ) ;
#197 = VERTEX_POINT ( 'NONE', #136 ) ;
#198 = EDGE_CURVE ( 'NONE', #149, #119, #219, .T. ) ;
#199 = DESIGN_CONTEXT ( 'detailed design', #27, 'design' ) ;
#200 = FACE_OUTER_BOUND ( 'NONE', #91, .T. ) ;
#201 = CC_DESIGN_DATE_AND_TIME_ASSIGNMENT ( #196, #130, ( #89 ) ) ;
#202 = ORIENTED_EDGE ( 'NONE', *, *, #40, .F. ) ;
#203 = DIRECTION ( 'NONE',  ( -1.000000000000000000, 0.0000000000000000000, 0.0000000000000000000 ) ) ;
#204 = LINE ( 'NONE', #116, #132 ) ;
#205 = PERSON_AND_ORGANIZATION ( #120, #2 ) ;
#206 = ORIENTED_EDGE ( 'NONE', *, *, #85, .F. ) ;
#207 = CARTESIAN_POINT ( 'NONE',  ( -2.499999999999988500, 2.500000000000002200, 0.0000000000000000000 ) ) ;
#208 = PLANE ( 'NONE',  #76 ) ;
#209 = LINE ( 'NONE', #81, #218 ) ;
#210 = ORIENTED_EDGE ( 'NONE', *, *, #72, .F. ) ;
#211 = PLANE ( 'NONE',  #7 ) ;
#212 = DIRECTION ( 'NONE',  ( -0.0000000000000000000, -1.000000000000000000, -0.0000000000000000000 ) ) ;
#213 = APPLICATION_CONTEXT ( 'configuration controlled 3d designs of mechanical parts and assemblies' ) ;
#214 = EDGE_CURVE ( 'NONE', #17, #16, #94, .T. ) ;
#215 = DATE_AND_TIME ( #167, #220 ) ;
#216 = ORIENTED_EDGE ( 'NONE', *, *, #223, .T. ) ;
#217 = CALENDAR_DATE ( 2017, 31, 1 ) ;
#218 = VECTOR ( 'NONE', #57, 1000.000000000000000 ) ;
#219 = LINE ( 'NONE', #63, #55 ) ;
#220 = LOCAL_TIME ( 14, 3, 56.00000000000000000, #101 ) ;
#221 = CARTESIAN_POINT ( 'NONE',  ( 2.500000000000002200, -2.500000000000002200, 1.000000000000000000 ) ) ;
#222 = AXIS2_PLACEMENT_3D ( 'NONE', #221, #203, #162 ) ;
#223 = EDGE_CURVE ( 'NONE', #16, #149, #151, .T. ) ;
#224 = PERSON_AND_ORGANIZATION ( #120, #2 ) ;
#225 = CARTESIAN_POINT ( 'NONE',  ( -2.499999999999988500, 2.500000000000002200, 0.0000000000000000000 ) ) ;
#226 = SECURITY_CLASSIFICATION_LEVEL ( 'unclassified' ) ;
#227 = AXIS2_PLACEMENT_3D ( 'NONE', #207, #172, #93 ) ;
#228 = VECTOR ( 'NONE', #144, 1000.000000000000000 ) ;
#229 = PERSON_AND_ORGANIZATION ( #120, #2 ) ;
#230 = CARTESIAN_POINT ( 'NONE',  ( 2.500000000000002200, -2.500000000000002200, 1.000000000000000000 ) ) ;
#231 = VERTEX_POINT ( 'NONE', #92 ) ;
#232 = CARTESIAN_POINT ( 'NONE',  ( 0.0000000000000000000, 0.0000000000000000000, 0.0000000000000000000 ) ) ;
#233 = DIRECTION ( 'NONE',  ( 0.0000000000000000000, -0.0000000000000000000, -1.000000000000000000 ) ) ;
#234 = CARTESIAN_POINT ( 'NONE',  ( -2.499999999999988500, -2.500000000000002200, 1.000000000000000000 ) ) ;
#235 = PERSON_AND_ORGANIZATION_ROLE ( 'design_owner' ) ;
#236 = PERSON_AND_ORGANIZATION ( #120, #2 ) ;
#237 =( GEOMETRIC_REPRESENTATION_CONTEXT ( 3 ) GLOBAL_UNCERTAINTY_ASSIGNED_CONTEXT ( ( #176 ) ) GLOBAL_UNIT_ASSIGNED_CONTEXT ( ( #195, #96, #154 ) ) REPRESENTATION_CONTEXT ( 'NONE', 'WORKASPACE' ) );
ENDSEC;
END-ISO-10303-21;
