ISO-10303-21;
HEADER;
FILE_DESCRIPTION (( 'STEP AP203' ),
    '1' );
FILE_NAME ('Web Model 19841_19883.step',
    '2022-04-06T15:17:46',
    ( 'WC' ),
    ( 'Windows Central' ),
    'SwSTEP 2.0',
    'SolidWorks 2021',
    '' );
FILE_SCHEMA (( 'CONFIG_CONTROL_DESIGN' ));
ENDSEC;

DATA;
#1 = VERTEX_POINT ( 'NONE', #95 ) ;
#2 = EDGE_CURVE ( 'NONE', #121, #1, #99, .T. ) ;
#3 = ORIENTED_EDGE ( 'NONE', *, *, #2, .F. ) ;
#4 = PRODUCT ( 'Web Model 19841_19883', 'Web Model 19841_19883', '', ( #161 ) ) ;
#5 = VERTEX_POINT ( 'NONE', #126 ) ;
#6 = LOCAL_TIME ( 11, 17, 46.00000000000000000, #49 ) ;
#7 = AXIS2_PLACEMENT_3D ( 'NONE', #118, #112, #24 ) ;
#8 = APPROVAL ( #33, 'UNSPECIFIED' ) ;
#9 = DIRECTION ( 'NONE',  ( -0.000000000000000000, -0.000000000000000000, -1.000000000000000000 ) ) ;
#10 = CYLINDRICAL_SURFACE ( 'NONE', #40, 25.00000000000000000 ) ;
#11 = SECURITY_CLASSIFICATION_LEVEL ( 'unclassified' ) ;
#12 = DIRECTION ( 'NONE',  ( 1.000000000000000000, 0.000000000000000000, 0.000000000000000000 ) ) ;
#13 = APPROVAL_DATE_TIME ( #106, #8 ) ;
#14 = EDGE_CURVE ( 'NONE', #5, #1, #103, .T. ) ;
#15 = DATE_AND_TIME ( #101, #82 ) ;
#16 = MANIFOLD_SOLID_BREP ( 'Boss-Extrude1', #140 ) ;
#17 = CALENDAR_DATE ( 2022, 6, 4 ) ;
#18 = LINE ( 'NONE', #19, #120 ) ;
#19 = CARTESIAN_POINT ( 'NONE',  ( 25.00000000000000000, 3.061616997868383043E-15, 2.000000000000000000 ) ) ;
#20 = APPROVAL_ROLE ( '' ) ;
#21 = DIRECTION ( 'NONE',  ( -1.000000000000000000, 0.000000000000000000, 0.000000000000000000 ) ) ;
#22 = PERSON_AND_ORGANIZATION ( #155, #144 ) ;
#23 = APPROVAL ( #119, 'UNSPECIFIED' ) ;
#24 = DIRECTION ( 'NONE',  ( 1.000000000000000000, 0.000000000000000000, -0.000000000000000000 ) ) ;
#25 = CALENDAR_DATE ( 2022, 6, 4 ) ;
#26 = ORIENTED_EDGE ( 'NONE', *, *, #80, .F. ) ;
#27 = ORIENTED_EDGE ( 'NONE', *, *, #80, .T. ) ;
#28 = CARTESIAN_POINT ( 'NONE',  ( 0.000000000000000000, 0.000000000000000000, 0.000000000000000000 ) ) ;
#29 = CC_DESIGN_PERSON_AND_ORGANIZATION_ASSIGNMENT ( #92, #175, ( #135 ) ) ;
#30 = CIRCLE ( 'NONE', #167, 25.00000000000000000 ) ;
#31 = APPROVAL_PERSON_ORGANIZATION ( #22, #8, #88 ) ;
#32 = APPLICATION_CONTEXT ( 'configuration controlled 3d designs of mechanical parts and assemblies' ) ;
#33 = APPROVAL_STATUS ( 'not_yet_approved' ) ;
#34 = APPROVAL_STATUS ( 'not_yet_approved' ) ;
#35 = DATE_TIME_ROLE ( 'classification_date' ) ;
#36 = ORIENTED_EDGE ( 'NONE', *, *, #90, .F. ) ;
#37 = ORIENTED_EDGE ( 'NONE', *, *, #58, .F. ) ;
#38 = ADVANCED_FACE ( 'NONE', ( #81 ), #116, .T. ) ;
#39 = AXIS2_PLACEMENT_3D ( 'NONE', #28, #138, #41 ) ;
#40 = AXIS2_PLACEMENT_3D ( 'NONE', #113, #145, #21 ) ;
#41 = DIRECTION ( 'NONE',  ( 1.000000000000000000, 0.000000000000000000, 0.000000000000000000 ) ) ;
#42 = CIRCLE ( 'NONE', #45, 25.00000000000000000 ) ;
#43 = DIRECTION ( 'NONE',  ( 0.000000000000000000, 0.000000000000000000, 1.000000000000000000 ) ) ;
#44 = APPLICATION_PROTOCOL_DEFINITION ( 'international standard', 'config_control_design', 1994, #32 ) ;
#45 = AXIS2_PLACEMENT_3D ( 'NONE', #147, #129, #149 ) ;
#46 =( NAMED_UNIT ( * ) PLANE_ANGLE_UNIT ( ) SI_UNIT ( $, .RADIAN. ) );
#47 = DATE_AND_TIME ( #25, #6 ) ;
#48 = CARTESIAN_POINT ( 'NONE',  ( 0.000000000000000000, 0.000000000000000000, 2.000000000000000000 ) ) ;
#49 = COORDINATED_UNIVERSAL_TIME_OFFSET ( 5, 0, .BEHIND. ) ;
#50 = SHAPE_DEFINITION_REPRESENTATION ( #94, #68 ) ;
#51 = APPLICATION_CONTEXT ( 'configuration controlled 3d designs of mechanical parts and assemblies' ) ;
#52 = ORIENTED_EDGE ( 'NONE', *, *, #141, .T. ) ;
#53 = CC_DESIGN_PERSON_AND_ORGANIZATION_ASSIGNMENT ( #117, #150, ( #54 ) ) ;
#54 = SECURITY_CLASSIFICATION ( '', '', #11 ) ;
#55 = ORIENTED_EDGE ( 'NONE', *, *, #58, .T. ) ;
#56 = CC_DESIGN_DATE_AND_TIME_ASSIGNMENT ( #73, #65, ( #137 ) ) ;
#57 = CC_DESIGN_SECURITY_CLASSIFICATION ( #54, ( #135 ) ) ;
#58 = EDGE_CURVE ( 'NONE', #153, #121, #18, .T. ) ;
#59 = FACE_OUTER_BOUND ( 'NONE', #78, .T. ) ;
#60 =( LENGTH_UNIT ( ) NAMED_UNIT ( * ) SI_UNIT ( .MILLI., .METRE. ) );
#61 = CALENDAR_DATE ( 2022, 6, 4 ) ;
#62 = DIRECTION ( 'NONE',  ( 0.000000000000000000, 0.000000000000000000, 1.000000000000000000 ) ) ;
#63 = COORDINATED_UNIVERSAL_TIME_OFFSET ( 5, 0, .BEHIND. ) ;
#64 = PERSON_AND_ORGANIZATION_ROLE ( 'creator' ) ;
#65 = DATE_TIME_ROLE ( 'creation_date' ) ;
#66 = CC_DESIGN_APPROVAL ( #115, ( #137 ) ) ;
#67 = CC_DESIGN_PERSON_AND_ORGANIZATION_ASSIGNMENT ( #76, #164, ( #4 ) ) ;
#68 = ADVANCED_BREP_SHAPE_REPRESENTATION ( 'Web Model 19841_19883', ( #16, #77 ), #111 ) ;
#69 = DIRECTION ( 'NONE',  ( -0.000000000000000000, -0.000000000000000000, -1.000000000000000000 ) ) ;
#70 = DIRECTION ( 'NONE',  ( 1.000000000000000000, 0.000000000000000000, 0.000000000000000000 ) ) ;
#71 = APPROVAL_DATE_TIME ( #133, #115 ) ;
#72 = CARTESIAN_POINT ( 'NONE',  ( 0.000000000000000000, 0.000000000000000000, 2.000000000000000000 ) ) ;
#73 = DATE_AND_TIME ( #172, #139 ) ;
#74 = APPROVAL_PERSON_ORGANIZATION ( #86, #115, #20 ) ;
#75 = PERSON_AND_ORGANIZATION ( #155, #144 ) ;
#76 = PERSON_AND_ORGANIZATION ( #155, #144 ) ;
#77 = AXIS2_PLACEMENT_3D ( 'NONE', #114, #130, #104 ) ;
#78 = EDGE_LOOP ( 'NONE', ( #166, #3 ) ) ;
#79 = CC_DESIGN_PERSON_AND_ORGANIZATION_ASSIGNMENT ( #148, #84, ( #137 ) ) ;
#80 = EDGE_CURVE ( 'NONE', #5, #153, #30, .T. ) ;
#81 = FACE_OUTER_BOUND ( 'NONE', #136, .T. ) ;
#82 = LOCAL_TIME ( 11, 17, 46.00000000000000000, #132 ) ;
#83 = CARTESIAN_POINT ( 'NONE',  ( -25.00000000000000000, 0.000000000000000000, 2.000000000000000000 ) ) ;
#84 = PERSON_AND_ORGANIZATION_ROLE ( 'creator' ) ;
#85 =( NAMED_UNIT ( * ) SI_UNIT ( $, .STERADIAN. ) SOLID_ANGLE_UNIT ( ) );
#86 = PERSON_AND_ORGANIZATION ( #155, #144 ) ;
#87 = DIRECTION ( 'NONE',  ( -0.000000000000000000, -0.000000000000000000, -1.000000000000000000 ) ) ;
#88 = APPROVAL_ROLE ( '' ) ;
#89 = ADVANCED_FACE ( 'NONE', ( #59 ), #171, .F. ) ;
#90 = EDGE_CURVE ( 'NONE', #153, #5, #125, .T. ) ;
#91 = FACE_OUTER_BOUND ( 'NONE', #165, .T. ) ;
#92 = PERSON_AND_ORGANIZATION ( #155, #144 ) ;
#93 = ORIENTED_EDGE ( 'NONE', *, *, #14, .F. ) ;
#94 = PRODUCT_DEFINITION_SHAPE ( 'NONE', 'NONE',  #137 ) ;
#95 = CARTESIAN_POINT ( 'NONE',  ( -25.00000000000000000, 0.000000000000000000, 0.000000000000000000 ) ) ;
#96 = AXIS2_PLACEMENT_3D ( 'NONE', #127, #87, #105 ) ;
#97 = ADVANCED_FACE ( 'NONE', ( #100 ), #10, .T. ) ;
#98 = ADVANCED_FACE ( 'NONE', ( #91 ), #159, .T. ) ;
#99 = CIRCLE ( 'NONE', #39, 25.00000000000000000 ) ;
#100 = FACE_OUTER_BOUND ( 'NONE', #152, .T. ) ;
#101 = CALENDAR_DATE ( 2022, 6, 4 ) ;
#102 = AXIS2_PLACEMENT_3D ( 'NONE', #72, #62, #157 ) ;
#103 = LINE ( 'NONE', #83, #142 ) ;
#104 = DIRECTION ( 'NONE',  ( 1.000000000000000000, 0.000000000000000000, 0.000000000000000000 ) ) ;
#105 = DIRECTION ( 'NONE',  ( -1.000000000000000000, 0.000000000000000000, 0.000000000000000000 ) ) ;
#106 = DATE_AND_TIME ( #61, #131 ) ;
#107 = APPROVAL_ROLE ( '' ) ;
#108 = ORIENTED_EDGE ( 'NONE', *, *, #2, .T. ) ;
#109 = ORIENTED_EDGE ( 'NONE', *, *, #14, .T. ) ;
#110 = LOCAL_TIME ( 11, 17, 46.00000000000000000, #63 ) ;
#111 =( GEOMETRIC_REPRESENTATION_CONTEXT ( 3 ) GLOBAL_UNCERTAINTY_ASSIGNED_CONTEXT ( ( #156 ) ) GLOBAL_UNIT_ASSIGNED_CONTEXT ( ( #60, #46, #85 ) ) REPRESENTATION_CONTEXT ( 'NONE', 'WORKASPACE' ) );
#112 = DIRECTION ( 'NONE',  ( 0.000000000000000000, 0.000000000000000000, 1.000000000000000000 ) ) ;
#113 = CARTESIAN_POINT ( 'NONE',  ( 0.000000000000000000, 0.000000000000000000, 2.000000000000000000 ) ) ;
#114 = CARTESIAN_POINT ( 'NONE',  ( 0.000000000000000000, 0.000000000000000000, 0.000000000000000000 ) ) ;
#115 = APPROVAL ( #34, 'UNSPECIFIED' ) ;
#116 = CYLINDRICAL_SURFACE ( 'NONE', #96, 25.00000000000000000 ) ;
#117 = PERSON_AND_ORGANIZATION ( #155, #144 ) ;
#118 = CARTESIAN_POINT ( 'NONE',  ( 0.000000000000000000, 0.000000000000000000, 0.000000000000000000 ) ) ;
#119 = APPROVAL_STATUS ( 'not_yet_approved' ) ;
#120 = VECTOR ( 'NONE', #69, 1000.000000000000000 ) ;
#121 = VERTEX_POINT ( 'NONE', #173 ) ;
#122 = CC_DESIGN_PERSON_AND_ORGANIZATION_ASSIGNMENT ( #158, #64, ( #135 ) ) ;
#123 = AXIS2_PLACEMENT_3D ( 'NONE', #170, #43, #70 ) ;
#124 = DESIGN_CONTEXT ( 'detailed design', #51, 'design' ) ;
#125 = CIRCLE ( 'NONE', #123, 25.00000000000000000 ) ;
#126 = CARTESIAN_POINT ( 'NONE',  ( -25.00000000000000000, 0.000000000000000000, 2.000000000000000000 ) ) ;
#127 = CARTESIAN_POINT ( 'NONE',  ( 0.000000000000000000, 0.000000000000000000, 2.000000000000000000 ) ) ;
#128 = COORDINATED_UNIVERSAL_TIME_OFFSET ( 5, 0, .BEHIND. ) ;
#129 = DIRECTION ( 'NONE',  ( 0.000000000000000000, 0.000000000000000000, 1.000000000000000000 ) ) ;
#130 = DIRECTION ( 'NONE',  ( 0.000000000000000000, 0.000000000000000000, 1.000000000000000000 ) ) ;
#131 = LOCAL_TIME ( 11, 17, 46.00000000000000000, #128 ) ;
#132 = COORDINATED_UNIVERSAL_TIME_OFFSET ( 5, 0, .BEHIND. ) ;
#133 = DATE_AND_TIME ( #17, #110 ) ;
#134 = ORIENTED_EDGE ( 'NONE', *, *, #90, .T. ) ;
#135 = PRODUCT_DEFINITION_FORMATION_WITH_SPECIFIED_SOURCE ( 'ANY', '', #4, .NOT_KNOWN. ) ;
#136 = EDGE_LOOP ( 'NONE', ( #37, #26, #109, #52 ) ) ;
#137 = PRODUCT_DEFINITION ( 'UNKNOWN', '', #135, #124 ) ;
#138 = DIRECTION ( 'NONE',  ( 0.000000000000000000, 0.000000000000000000, 1.000000000000000000 ) ) ;
#139 = LOCAL_TIME ( 11, 17, 46.00000000000000000, #174 ) ;
#140 = CLOSED_SHELL ( 'NONE', ( #97, #38, #98, #89 ) ) ;
#141 = EDGE_CURVE ( 'NONE', #1, #121, #42, .T. ) ;
#142 = VECTOR ( 'NONE', #9, 1000.000000000000000 ) ;
#143 = DIRECTION ( 'NONE',  ( 0.000000000000000000, 0.000000000000000000, 1.000000000000000000 ) ) ;
#144 = ORGANIZATION ( 'UNSPECIFIED', 'UNSPECIFIED', '' ) ;
#145 = DIRECTION ( 'NONE',  ( -0.000000000000000000, -0.000000000000000000, -1.000000000000000000 ) ) ;
#146 = APPROVAL_DATE_TIME ( #15, #23 ) ;
#147 = CARTESIAN_POINT ( 'NONE',  ( 0.000000000000000000, 0.000000000000000000, 0.000000000000000000 ) ) ;
#148 = PERSON_AND_ORGANIZATION ( #155, #144 ) ;
#149 = DIRECTION ( 'NONE',  ( 1.000000000000000000, 0.000000000000000000, 0.000000000000000000 ) ) ;
#150 = PERSON_AND_ORGANIZATION_ROLE ( 'classification_officer' ) ;
#151 = CC_DESIGN_DATE_AND_TIME_ASSIGNMENT ( #47, #35, ( #54 ) ) ;
#152 = EDGE_LOOP ( 'NONE', ( #36, #55, #108, #93 ) ) ;
#153 = VERTEX_POINT ( 'NONE', #160 ) ;
#154 = APPROVAL_PERSON_ORGANIZATION ( #75, #23, #107 ) ;
#155 = PERSON ( 'UNSPECIFIED', 'UNSPECIFIED', 'UNSPECIFIED', ('UNSPECIFIED'), ('UNSPECIFIED'), ('UNSPECIFIED') ) ;
#156 = UNCERTAINTY_MEASURE_WITH_UNIT (LENGTH_MEASURE( 1.000000000000000082E-05 ), #60, 'distance_accuracy_value', 'NONE');
#157 = DIRECTION ( 'NONE',  ( 1.000000000000000000, 0.000000000000000000, -0.000000000000000000 ) ) ;
#158 = PERSON_AND_ORGANIZATION ( #155, #144 ) ;
#159 = PLANE ( 'NONE',  #102 ) ;
#160 = CARTESIAN_POINT ( 'NONE',  ( 25.00000000000000000, 3.061616997868383043E-15, 2.000000000000000000 ) ) ;
#161 = MECHANICAL_CONTEXT ( 'NONE', #32, 'mechanical' ) ;
#162 = APPLICATION_PROTOCOL_DEFINITION ( 'international standard', 'config_control_design', 1994, #51 ) ;
#163 = CC_DESIGN_APPROVAL ( #8, ( #135 ) ) ;
#164 = PERSON_AND_ORGANIZATION_ROLE ( 'design_owner' ) ;
#165 = EDGE_LOOP ( 'NONE', ( #27, #134 ) ) ;
#166 = ORIENTED_EDGE ( 'NONE', *, *, #141, .F. ) ;
#167 = AXIS2_PLACEMENT_3D ( 'NONE', #48, #143, #12 ) ;
#168 = PRODUCT_RELATED_PRODUCT_CATEGORY ( 'detail', '', ( #4 ) ) ;
#169 = CC_DESIGN_APPROVAL ( #23, ( #54 ) ) ;
#170 = CARTESIAN_POINT ( 'NONE',  ( 0.000000000000000000, 0.000000000000000000, 2.000000000000000000 ) ) ;
#171 = PLANE ( 'NONE',  #7 ) ;
#172 = CALENDAR_DATE ( 2022, 6, 4 ) ;
#173 = CARTESIAN_POINT ( 'NONE',  ( 25.00000000000000000, 3.061616997868383043E-15, 0.000000000000000000 ) ) ;
#174 = COORDINATED_UNIVERSAL_TIME_OFFSET ( 5, 0, .BEHIND. ) ;
#175 = PERSON_AND_ORGANIZATION_ROLE ( 'design_supplier' ) ;
ENDSEC;
END-ISO-10303-21;
