ISO-10303-21;
HEADER;
FILE_DESCRIPTION (( 'STEP AP203' ),
    '1' );
FILE_NAME ('TTN162792-E0W.STEP',
    '2019-10-24T14:16:58',
    ( '' ),
    ( '' ),
    'SwSTEP 2.0',
    'SolidWorks 2018',
    '' );
FILE_SCHEMA (( 'CONFIG_CONTROL_DESIGN' ));
ENDSEC;

DATA;
#1 = CIRCLE ( 'NONE', #167, 1.000000000000000000 ) ;
#2 = LINE ( 'NONE', #227, #137 ) ;
#3 = ADVANCED_FACE ( 'NONE', ( #86 ), #175, .T. ) ;
#4 = APPROVAL_ROLE ( '' ) ;
#5 = CIRCLE ( 'NONE', #61, 2.750999999999999890 ) ;
#6 = DIRECTION ( 'NONE',  ( 1.000000000000000000, 0.0000000000000000000, 0.0000000000000000000 ) ) ;
#7 = DIRECTION ( 'NONE',  ( 0.0000000000000000000, 0.0000000000000000000, 1.000000000000000000 ) ) ;
#8 = EDGE_CURVE ( 'NONE', #63, #244, #204, .T. ) ;
#9 = FACE_OUTER_BOUND ( 'NONE', #303, .T. ) ;
#10 = CARTESIAN_POINT ( 'NONE',  ( 0.9255444251801512312, 1.257068152173702380, 2.126526668337830106 ) ) ;
#11 = EDGE_CURVE ( 'NONE', #96, #297, #2, .T. ) ;
#12 = CARTESIAN_POINT ( 'NONE',  ( 0.9255444251801512312, 1.257068152173702380, 2.076526668337829840 ) ) ;
#13 = COORDINATED_UNIVERSAL_TIME_OFFSET ( 5, 0, .BEHIND. ) ;
#14 = AXIS2_PLACEMENT_3D ( 'NONE', #310, #7, #53 ) ;
#15 = CARTESIAN_POINT ( 'NONE',  ( 0.9255444251801512312, 1.257068152173702380, 1.345763511113682531 ) ) ;
#16 = VERTEX_POINT ( 'NONE', #170 ) ;
#17 = DIRECTION ( 'NONE',  ( -0.0000000000000000000, -0.0000000000000000000, 1.000000000000000000 ) ) ;
#18 = ORIENTED_EDGE ( 'NONE', *, *, #25, .T. ) ;
#19 = PERSON ( 'UNSPECIFIED', 'UNSPECIFIED', 'UNSPECIFIED', ('UNSPECIFIED'), ('UNSPECIFIED'), ('UNSPECIFIED') ) ;
#20 = CARTESIAN_POINT ( 'NONE',  ( 0.9255444251801512312, 1.257068152173702380, 2.076526668337829840 ) ) ;
#21 = CARTESIAN_POINT ( 'NONE',  ( 0.9255444251801512312, 1.257068152173702380, 1.345763511113682531 ) ) ;
#22 = EDGE_CURVE ( 'NONE', #156, #96, #74, .T. ) ;
#23 = AXIS2_PLACEMENT_3D ( 'NONE', #237, #132, #131 ) ;
#24 = ORIENTED_EDGE ( 'NONE', *, *, #240, .T. ) ;
#25 = EDGE_CURVE ( 'NONE', #219, #108, #5, .T. ) ;
#26 = AXIS2_PLACEMENT_3D ( 'NONE', #199, #102, #197 ) ;
#27 = PERSON_AND_ORGANIZATION ( #19, #166 ) ;
#28 = CARTESIAN_POINT ( 'NONE',  ( -0.07445557481984879655, 1.257068152173702380, 2.076526668337829840 ) ) ;
#29 = CYLINDRICAL_SURFACE ( 'NONE', #99, 1.000000000000000000 ) ;
#30 = CC_DESIGN_PERSON_AND_ORGANIZATION_ASSIGNMENT ( #276, #78, ( #259 ) ) ;
#31 = ORIENTED_EDGE ( 'NONE', *, *, #288, .F. ) ;
#32 = EDGE_CURVE ( 'NONE', #156, #108, #193, .T. ) ;
#33 = DIRECTION ( 'NONE',  ( 1.000000000000000000, 0.0000000000000000000, 0.0000000000000000000 ) ) ;
#34 = LINE ( 'NONE', #287, #149 ) ;
#35 = APPLICATION_PROTOCOL_DEFINITION ( 'international standard', 'config_control_design', 1994, #279 ) ;
#36 = DIRECTION ( 'NONE',  ( -0.7071067811865489050, 8.659560562354951347E-17, 0.7071067811865460184 ) ) ;
#37 = VERTEX_POINT ( 'NONE', #60 ) ;
#38 = PERSON_AND_ORGANIZATION ( #19, #166 ) ;
#39 = DIRECTION ( 'NONE',  ( 1.000000000000000000, 0.0000000000000000000, 0.0000000000000000000 ) ) ;
#40 = ORIENTED_EDGE ( 'NONE', *, *, #319, .T. ) ;
#41 = EDGE_CURVE ( 'NONE', #37, #156, #317, .T. ) ;
#42 = DIRECTION ( 'NONE',  ( -0.0000000000000000000, -0.0000000000000000000, 1.000000000000000000 ) ) ;
#43 = LOCAL_TIME ( 10, 16, 58.00000000000000000, #13 ) ;
#44 = DIRECTION ( 'NONE',  ( -0.0000000000000000000, -0.0000000000000000000, 1.000000000000000000 ) ) ;
#45 = AXIS2_PLACEMENT_3D ( 'NONE', #225, #281, #176 ) ;
#46 = FACE_OUTER_BOUND ( 'NONE', #163, .T. ) ;
#47 = ORIENTED_EDGE ( 'NONE', *, *, #8, .F. ) ;
#48 =( GEOMETRIC_REPRESENTATION_CONTEXT ( 3 ) GLOBAL_UNCERTAINTY_ASSIGNED_CONTEXT ( ( #294 ) ) GLOBAL_UNIT_ASSIGNED_CONTEXT ( ( #273, #57, #148 ) ) REPRESENTATION_CONTEXT ( 'NONE', 'WORKASPACE' ) );
#49 = PERSON_AND_ORGANIZATION ( #19, #166 ) ;
#50 = ORIENTED_EDGE ( 'NONE', *, *, #76, .T. ) ;
#51 = APPROVAL_PERSON_ORGANIZATION ( #114, #214, #256 ) ;
#52 = LINE ( 'NONE', #293, #295 ) ;
#53 = DIRECTION ( 'NONE',  ( 1.000000000000000000, 0.0000000000000000000, 0.0000000000000000000 ) ) ;
#54 = APPLICATION_CONTEXT ( 'configuration controlled 3d designs of mechanical parts and assemblies' ) ;
#55 = EDGE_CURVE ( 'NONE', #297, #141, #122, .T. ) ;
#56 = PERSON_AND_ORGANIZATION ( #19, #166 ) ;
#57 =( NAMED_UNIT ( * ) PLANE_ANGLE_UNIT ( ) SI_UNIT ( $, .RADIAN. ) );
#58 = CARTESIAN_POINT ( 'NONE',  ( -0.07445557481984879655, 1.257068152173702602, 1.345763511113682531 ) ) ;
#59 = MANIFOLD_SOLID_BREP ( 'TTN162767-1-solid1', #239 ) ;
#60 = CARTESIAN_POINT ( 'NONE',  ( -0.02445557481984932113, 1.257068152173702380, 2.126526668337830106 ) ) ;
#61 = AXIS2_PLACEMENT_3D ( 'NONE', #203, #229, #83 ) ;
#62 = ORIENTED_EDGE ( 'NONE', *, *, #55, .T. ) ;
#63 = VERTEX_POINT ( 'NONE', #201 ) ;
#64 = CALENDAR_DATE ( 2019, 24, 10 ) ;
#65 = CARTESIAN_POINT ( 'NONE',  ( 0.9255444251801512312, 1.257068152173702380, 2.295763511113682487 ) ) ;
#66 = DIRECTION ( 'NONE',  ( 1.000000000000000000, 0.0000000000000000000, 0.0000000000000000000 ) ) ;
#67 = DIRECTION ( 'NONE',  ( 1.000000000000000000, 0.0000000000000000000, 0.0000000000000000000 ) ) ;
#68 = DIRECTION ( 'NONE',  ( 0.0000000000000000000, 0.0000000000000000000, -1.000000000000000000 ) ) ;
#69 = DESIGN_CONTEXT ( 'detailed design', #279, 'design' ) ;
#70 = CONICAL_SURFACE ( 'NONE', #216, 1.000000000000000000, 0.7853981633974439491 ) ;
#71 = ORIENTED_EDGE ( 'NONE', *, *, #240, .F. ) ;
#72 = CC_DESIGN_SECURITY_CLASSIFICATION ( #87, ( #241 ) ) ;
#73 = SHAPE_DEFINITION_REPRESENTATION ( #119, #150 ) ;
#74 = CIRCLE ( 'NONE', #26, 0.9500000000000005107 ) ;
#75 = APPROVAL_DATE_TIME ( #277, #261 ) ;
#76 = EDGE_CURVE ( 'NONE', #96, #219, #268, .T. ) ;
#77 = PRODUCT_DEFINITION ( 'UNKNOWN', '', #241, #69 ) ;
#78 = PERSON_AND_ORGANIZATION_ROLE ( 'design_owner' ) ;
#79 = DIRECTION ( 'NONE',  ( -0.7071067811865444641, 0.0000000000000000000, -0.7071067811865505703 ) ) ;
#80 = DIRECTION ( 'NONE',  ( -1.000000000000000000, 0.0000000000000000000, 0.0000000000000000000 ) ) ;
#81 = APPROVAL_STATUS ( 'not_yet_approved' ) ;
#82 = CYLINDRICAL_SURFACE ( 'NONE', #198, 1.000000000000000000 ) ;
#83 = DIRECTION ( 'NONE',  ( 0.0000000000000000000, 0.0000000000000000000, -1.000000000000000000 ) ) ;
#84 = DIRECTION ( 'NONE',  ( 1.000000000000000000, 0.0000000000000000000, 0.0000000000000000000 ) ) ;
#85 = CIRCLE ( 'NONE', #207, 0.9499999999999996225 ) ;
#86 = FACE_OUTER_BOUND ( 'NONE', #159, .T. ) ;
#87 = SECURITY_CLASSIFICATION ( '', '', #252 ) ;
#88 = EDGE_CURVE ( 'NONE', #141, #297, #117, .T. ) ;
#89 = DIRECTION ( 'NONE',  ( -0.0000000000000000000, -0.0000000000000000000, 1.000000000000000000 ) ) ;
#90 = ORIENTED_EDGE ( 'NONE', *, *, #55, .F. ) ;
#91 = FACE_OUTER_BOUND ( 'NONE', #161, .T. ) ;
#92 = CC_DESIGN_APPROVAL ( #223, ( #77 ) ) ;
#93 = ORIENTED_EDGE ( 'NONE', *, *, #319, .F. ) ;
#94 = ORIENTED_EDGE ( 'NONE', *, *, #8, .T. ) ;
#95 = CC_DESIGN_DATE_AND_TIME_ASSIGNMENT ( #217, #142, ( #77 ) ) ;
#96 = VERTEX_POINT ( 'NONE', #145 ) ;
#97 = ORIENTED_EDGE ( 'NONE', *, *, #116, .T. ) ;
#98 = PERSON_AND_ORGANIZATION ( #19, #166 ) ;
#99 = AXIS2_PLACEMENT_3D ( 'NONE', #65, #112, #182 ) ;
#100 = APPROVAL_DATE_TIME ( #162, #223 ) ;
#101 = APPLICATION_PROTOCOL_DEFINITION ( 'international standard', 'config_control_design', 1994, #54 ) ;
#102 = DIRECTION ( 'NONE',  ( -0.0000000000000000000, -0.0000000000000000000, 1.000000000000000000 ) ) ;
#103 = MECHANICAL_CONTEXT ( 'NONE', #54, 'mechanical' ) ;
#104 = COORDINATED_UNIVERSAL_TIME_OFFSET ( 5, 0, .BEHIND. ) ;
#105 = DIRECTION ( 'NONE',  ( -0.0000000000000000000, -0.0000000000000000000, 1.000000000000000000 ) ) ;
#106 = CC_DESIGN_PERSON_AND_ORGANIZATION_ASSIGNMENT ( #56, #153, ( #87 ) ) ;
#107 = ORIENTED_EDGE ( 'NONE', *, *, #41, .F. ) ;
#108 = VERTEX_POINT ( 'NONE', #157 ) ;
#109 = DIRECTION ( 'NONE',  ( 1.000000000000000000, 0.0000000000000000000, 0.0000000000000000000 ) ) ;
#110 = CALENDAR_DATE ( 2019, 24, 10 ) ;
#111 = AXIS2_PLACEMENT_3D ( 'NONE', #20, #129, #154 ) ;
#112 = DIRECTION ( 'NONE',  ( -0.0000000000000000000, -0.0000000000000000000, 1.000000000000000000 ) ) ;
#113 = CARTESIAN_POINT ( 'NONE',  ( -0.07445557481984879655, 1.257068152173702602, 1.345763511113682531 ) ) ;
#114 = PERSON_AND_ORGANIZATION ( #19, #166 ) ;
#115 = CARTESIAN_POINT ( 'NONE',  ( 0.9255444251801512312, 1.257068152173702380, 2.076526668337829840 ) ) ;
#116 = EDGE_CURVE ( 'NONE', #16, #244, #1, .T. ) ;
#117 = CIRCLE ( 'NONE', #111, 1.000000000000000000 ) ;
#118 = CALENDAR_DATE ( 2019, 24, 10 ) ;
#119 = PRODUCT_DEFINITION_SHAPE ( 'NONE', 'NONE',  #77 ) ;
#120 = ADVANCED_FACE ( 'NONE', ( #127 ), #29, .T. ) ;
#121 = DIRECTION ( 'NONE',  ( 0.0000000000000000000, 0.0000000000000000000, -1.000000000000000000 ) ) ;
#122 = CIRCLE ( 'NONE', #321, 1.000000000000000000 ) ;
#123 = CARTESIAN_POINT ( 'NONE',  ( 0.9255444251801512312, 1.257068152173702380, -0.4552364888863176251 ) ) ;
#124 = DIRECTION ( 'NONE',  ( -1.000000000000000000, 0.0000000000000000000, 0.0000000000000000000 ) ) ;
#125 = CARTESIAN_POINT ( 'NONE',  ( 0.9255444251801512312, 1.257068152173702380, 1.295763511113682265 ) ) ;
#126 = DATE_TIME_ROLE ( 'classification_date' ) ;
#127 = FACE_OUTER_BOUND ( 'NONE', #285, .T. ) ;
#128 = AXIS2_PLACEMENT_3D ( 'NONE', #179, #151, #66 ) ;
#129 = DIRECTION ( 'NONE',  ( -0.0000000000000000000, -0.0000000000000000000, 1.000000000000000000 ) ) ;
#130 = CARTESIAN_POINT ( 'NONE',  ( 0.9255444251801511202, 0.3070681521737020359, 2.126526668337830106 ) ) ;
#131 = DIRECTION ( 'NONE',  ( 1.000000000000000000, 0.0000000000000000000, 0.0000000000000000000 ) ) ;
#132 = DIRECTION ( 'NONE',  ( 0.0000000000000000000, 0.0000000000000000000, -1.000000000000000000 ) ) ;
#133 = CARTESIAN_POINT ( 'NONE',  ( 0.9255444251801512312, 1.257068152173702380, 2.126526668337830106 ) ) ;
#134 = DATE_AND_TIME ( #188, #243 ) ;
#135 = CIRCLE ( 'NONE', #254, 1.000000000000000000 ) ;
#136 = AXIS2_PLACEMENT_3D ( 'NONE', #115, #68, #262 ) ;
#137 = VECTOR ( 'NONE', #251, 1000.000000000000000 ) ;
#138 = ADVANCED_FACE ( 'NONE', ( #224 ), #292, .F. ) ;
#139 = ORIENTED_EDGE ( 'NONE', *, *, #222, .F. ) ;
#140 = VECTOR ( 'NONE', #79, 1000.000000000000000 ) ;
#141 = VERTEX_POINT ( 'NONE', #291 ) ;
#142 = DATE_TIME_ROLE ( 'creation_date' ) ;
#143 = ORIENTED_EDGE ( 'NONE', *, *, #11, .F. ) ;
#144 = EDGE_CURVE ( 'NONE', #16, #297, #34, .T. ) ;
#145 = CARTESIAN_POINT ( 'NONE',  ( 1.875544425180151853, 1.257068152173702602, 2.126526668337830106 ) ) ;
#146 = PERSON_AND_ORGANIZATION_ROLE ( 'creator' ) ;
#147 = AXIS2_PLACEMENT_3D ( 'NONE', #15, #17, #178 ) ;
#148 =( NAMED_UNIT ( * ) SI_UNIT ( $, .STERADIAN. ) SOLID_ANGLE_UNIT ( ) );
#149 = VECTOR ( 'NONE', #44, 1000.000000000000000 ) ;
#150 = ADVANCED_BREP_SHAPE_REPRESENTATION ( 'TTN162792-E0W', ( #59, #14 ), #48 ) ;
#151 = DIRECTION ( 'NONE',  ( 0.0000000000000000000, -0.0000000000000000000, 1.000000000000000000 ) ) ;
#152 = CC_DESIGN_PERSON_AND_ORGANIZATION_ASSIGNMENT ( #38, #248, ( #77 ) ) ;
#153 = PERSON_AND_ORGANIZATION_ROLE ( 'classification_officer' ) ;
#154 = DIRECTION ( 'NONE',  ( 1.000000000000000000, 0.0000000000000000000, 0.0000000000000000000 ) ) ;
#155 = AXIS2_PLACEMENT_3D ( 'NONE', #123, #311, #172 ) ;
#156 = VERTEX_POINT ( 'NONE', #130 ) ;
#157 = CARTESIAN_POINT ( 'NONE',  ( 0.9255444251801512312, 1.257068152173702602, 2.295763511113682487 ) ) ;
#158 = ORIENTED_EDGE ( 'NONE', *, *, #263, .F. ) ;
#159 = EDGE_LOOP ( 'NONE', ( #236, #215, #50, #18 ) ) ;
#160 = ORIENTED_EDGE ( 'NONE', *, *, #88, .T. ) ;
#161 = EDGE_LOOP ( 'NONE', ( #47, #31, #301, #93 ) ) ;
#162 = DATE_AND_TIME ( #110, #300 ) ;
#163 = EDGE_LOOP ( 'NONE', ( #235, #265, #62, #173, #296 ) ) ;
#164 = AXIS2_PLACEMENT_3D ( 'NONE', #181, #42, #210 ) ;
#165 = VERTEX_POINT ( 'NONE', #206 ) ;
#166 = ORGANIZATION ( 'UNSPECIFIED', 'UNSPECIFIED', '' ) ;
#167 = AXIS2_PLACEMENT_3D ( 'NONE', #21, #234, #39 ) ;
#168 = DIRECTION ( 'NONE',  ( -0.0000000000000000000, -0.0000000000000000000, 1.000000000000000000 ) ) ;
#169 = PERSON_AND_ORGANIZATION_ROLE ( 'design_supplier' ) ;
#170 = CARTESIAN_POINT ( 'NONE',  ( 1.925544425180151231, 1.257068152173702380, 1.345763511113682531 ) ) ;
#171 = APPROVAL_STATUS ( 'not_yet_approved' ) ;
#172 = DIRECTION ( 'NONE',  ( -1.182336065960201216E-16, -1.000000000000000000, 0.0000000000000000000 ) ) ;
#173 = ORIENTED_EDGE ( 'NONE', *, *, #304, .F. ) ;
#174 = AXIS2_PLACEMENT_3D ( 'NONE', #10, #105, #314 ) ;
#175 = SPHERICAL_SURFACE ( 'NONE', #45, 2.750999999999999890 ) ;
#176 = DIRECTION ( 'NONE',  ( 0.0000000000000000000, 1.000000000000000000, 0.0000000000000000000 ) ) ;
#177 = CARTESIAN_POINT ( 'NONE',  ( 0.9255444251801512312, 1.257068152173702380, 2.126526668337830106 ) ) ;
#178 = DIRECTION ( 'NONE',  ( 1.000000000000000000, 0.0000000000000000000, 0.0000000000000000000 ) ) ;
#179 = CARTESIAN_POINT ( 'NONE',  ( 0.9255444251801512312, 1.257068152173702380, 1.295763511113682265 ) ) ;
#180 = PERSON_AND_ORGANIZATION ( #19, #166 ) ;
#181 = CARTESIAN_POINT ( 'NONE',  ( 0.9255444251801512312, 1.257068152173702380, 1.345763511113682531 ) ) ;
#182 = DIRECTION ( 'NONE',  ( 1.000000000000000000, 0.0000000000000000000, 0.0000000000000000000 ) ) ;
#183 = AXIS2_PLACEMENT_3D ( 'NONE', #133, #258, #109 ) ;
#184 = VECTOR ( 'NONE', #284, 1000.000000000000114 ) ;
#185 = ORIENTED_EDGE ( 'NONE', *, *, #144, .T. ) ;
#186 = ORIENTED_EDGE ( 'NONE', *, *, #25, .F. ) ;
#187 = APPROVAL_PERSON_ORGANIZATION ( #49, #223, #226 ) ;
#188 = CALENDAR_DATE ( 2019, 24, 10 ) ;
#189 = ORIENTED_EDGE ( 'NONE', *, *, #222, .T. ) ;
#190 = AXIS2_PLACEMENT_3D ( 'NONE', #177, #318, #208 ) ;
#191 = DIRECTION ( 'NONE',  ( 0.0000000000000000000, 0.0000000000000000000, -1.000000000000000000 ) ) ;
#192 = FACE_OUTER_BOUND ( 'NONE', #212, .T. ) ;
#193 = CIRCLE ( 'NONE', #155, 2.750999999999999890 ) ;
#194 = PRODUCT_RELATED_PRODUCT_CATEGORY ( 'detail', '', ( #259 ) ) ;
#195 = CC_DESIGN_PERSON_AND_ORGANIZATION_ASSIGNMENT ( #180, #169, ( #241 ) ) ;
#196 = CARTESIAN_POINT ( 'NONE',  ( 0.9255444251801512312, 1.257068152173702380, 1.345763511113682531 ) ) ;
#197 = DIRECTION ( 'NONE',  ( 1.000000000000000000, 0.0000000000000000000, 0.0000000000000000000 ) ) ;
#198 = AXIS2_PLACEMENT_3D ( 'NONE', #233, #232, #67 ) ;
#199 = CARTESIAN_POINT ( 'NONE',  ( 0.9255444251801512312, 1.257068152173702380, 2.126526668337830106 ) ) ;
#200 = LOCAL_TIME ( 10, 16, 58.00000000000000000, #104 ) ;
#201 = CARTESIAN_POINT ( 'NONE',  ( -0.02445557481984845377, 1.257068152173702602, 1.295763511113682265 ) ) ;
#202 = CC_DESIGN_DATE_AND_TIME_ASSIGNMENT ( #134, #126, ( #87 ) ) ;
#203 = CARTESIAN_POINT ( 'NONE',  ( 0.9255444251801512312, 1.257068152173702380, -0.4552364888863176251 ) ) ;
#204 = LINE ( 'NONE', #58, #249 ) ;
#205 = COORDINATED_UNIVERSAL_TIME_OFFSET ( 5, 0, .BEHIND. ) ;
#206 = CARTESIAN_POINT ( 'NONE',  ( 1.875544425180150965, 1.257068152173702380, 1.295763511113682265 ) ) ;
#207 = AXIS2_PLACEMENT_3D ( 'NONE', #125, #121, #6 ) ;
#208 = DIRECTION ( 'NONE',  ( 1.000000000000000000, 0.0000000000000000000, 0.0000000000000000000 ) ) ;
#209 = LINE ( 'NONE', #260, #184 ) ;
#210 = DIRECTION ( 'NONE',  ( 1.000000000000000000, 0.0000000000000000000, 0.0000000000000000000 ) ) ;
#211 = CIRCLE ( 'NONE', #23, 0.9499999999999996225 ) ;
#212 = EDGE_LOOP ( 'NONE', ( #71, #94, #315, #158 ) ) ;
#213 = CALENDAR_DATE ( 2019, 24, 10 ) ;
#214 = APPROVAL ( #171, 'UNSPECIFIED' ) ;
#215 = ORIENTED_EDGE ( 'NONE', *, *, #22, .T. ) ;
#216 = AXIS2_PLACEMENT_3D ( 'NONE', #247, #191, #80 ) ;
#217 = DATE_AND_TIME ( #213, #289 ) ;
#218 = ORIENTED_EDGE ( 'NONE', *, *, #144, .F. ) ;
#219 = VERTEX_POINT ( 'NONE', #316 ) ;
#220 = ADVANCED_FACE ( 'NONE', ( #91 ), #305, .T. ) ;
#221 = CARTESIAN_POINT ( 'NONE',  ( 1.925544425180151231, 1.257068152173702380, 2.076526668337829840 ) ) ;
#222 = EDGE_CURVE ( 'NONE', #244, #141, #52, .T. ) ;
#223 = APPROVAL ( #81, 'UNSPECIFIED' ) ;
#224 = FACE_OUTER_BOUND ( 'NONE', #266, .T. ) ;
#225 = CARTESIAN_POINT ( 'NONE',  ( 0.9255444251801512312, 1.257068152173702380, -0.4552364888863176251 ) ) ;
#226 = APPROVAL_ROLE ( '' ) ;
#227 = CARTESIAN_POINT ( 'NONE',  ( 1.925544425180151231, 1.257068152173702602, 2.076526668337829840 ) ) ;
#228 = APPROVAL_DATE_TIME ( #320, #214 ) ;
#229 = DIRECTION ( 'NONE',  ( 1.000000000000000000, 0.0000000000000000000, 0.0000000000000000000 ) ) ;
#230 = DIRECTION ( 'NONE',  ( -0.0000000000000000000, -0.0000000000000000000, 1.000000000000000000 ) ) ;
#231 = ORIENTED_EDGE ( 'NONE', *, *, #304, .T. ) ;
#232 = DIRECTION ( 'NONE',  ( -0.0000000000000000000, -0.0000000000000000000, 1.000000000000000000 ) ) ;
#233 = CARTESIAN_POINT ( 'NONE',  ( 0.9255444251801512312, 1.257068152173702380, 2.295763511113682487 ) ) ;
#234 = DIRECTION ( 'NONE',  ( -0.0000000000000000000, -0.0000000000000000000, 1.000000000000000000 ) ) ;
#235 = ORIENTED_EDGE ( 'NONE', *, *, #76, .F. ) ;
#236 = ORIENTED_EDGE ( 'NONE', *, *, #32, .F. ) ;
#237 = CARTESIAN_POINT ( 'NONE',  ( 0.9255444251801512312, 1.257068152173702380, 1.295763511113682265 ) ) ;
#238 = CONICAL_SURFACE ( 'NONE', #136, 1.000000000000000000, 0.7853981633974439491 ) ;
#239 = CLOSED_SHELL ( 'NONE', ( #242, #307, #272, #120, #138, #245, #270, #3, #220 ) ) ;
#240 = EDGE_CURVE ( 'NONE', #63, #165, #211, .T. ) ;
#241 = PRODUCT_DEFINITION_FORMATION_WITH_SPECIFIED_SOURCE ( 'ANY', '', #259, .NOT_KNOWN. ) ;
#242 = ADVANCED_FACE ( 'NONE', ( #192 ), #271, .T. ) ;
#243 = LOCAL_TIME ( 10, 16, 58.00000000000000000, #205 ) ;
#244 = VERTEX_POINT ( 'NONE', #113 ) ;
#245 = ADVANCED_FACE ( 'NONE', ( #283 ), #82, .T. ) ;
#246 = EDGE_LOOP ( 'NONE', ( #139, #40, #185, #269 ) ) ;
#247 = CARTESIAN_POINT ( 'NONE',  ( 0.9255444251801512312, 1.257068152173702380, 2.076526668337829840 ) ) ;
#248 = PERSON_AND_ORGANIZATION_ROLE ( 'creator' ) ;
#249 = VECTOR ( 'NONE', #36, 1000.000000000000114 ) ;
#250 = APPROVAL_PERSON_ORGANIZATION ( #27, #261, #4 ) ;
#251 = DIRECTION ( 'NONE',  ( 0.7071067811865444641, 8.659560562354895880E-17, -0.7071067811865505703 ) ) ;
#252 = SECURITY_CLASSIFICATION_LEVEL ( 'unclassified' ) ;
#253 = EDGE_CURVE ( 'NONE', #219, #37, #280, .T. ) ;
#254 = AXIS2_PLACEMENT_3D ( 'NONE', #196, #168, #33 ) ;
#255 = LINE ( 'NONE', #28, #140 ) ;
#256 = APPROVAL_ROLE ( '' ) ;
#257 = ORIENTED_EDGE ( 'NONE', *, *, #253, .T. ) ;
#258 = DIRECTION ( 'NONE',  ( -0.0000000000000000000, -0.0000000000000000000, 1.000000000000000000 ) ) ;
#259 = PRODUCT ( 'TTN162792-E0W', 'TTN162792-E0W', '', ( #103 ) ) ;
#260 = CARTESIAN_POINT ( 'NONE',  ( 1.925544425180151231, 1.257068152173702380, 1.345763511113682531 ) ) ;
#261 = APPROVAL ( #312, 'UNSPECIFIED' ) ;
#262 = DIRECTION ( 'NONE',  ( -1.000000000000000000, 0.0000000000000000000, 0.0000000000000000000 ) ) ;
#263 = EDGE_CURVE ( 'NONE', #165, #16, #209, .T. ) ;
#264 = FACE_OUTER_BOUND ( 'NONE', #298, .T. ) ;
#265 = ORIENTED_EDGE ( 'NONE', *, *, #11, .T. ) ;
#266 = EDGE_LOOP ( 'NONE', ( #308, #24 ) ) ;
#267 = SPHERICAL_SURFACE ( 'NONE', #282, 2.750999999999999890 ) ;
#268 = CIRCLE ( 'NONE', #190, 0.9500000000000005107 ) ;
#269 = ORIENTED_EDGE ( 'NONE', *, *, #88, .F. ) ;
#270 = ADVANCED_FACE ( 'NONE', ( #264 ), #238, .T. ) ;
#271 = CONICAL_SURFACE ( 'NONE', #164, 1.000000000000000000, 0.7853981633974503884 ) ;
#272 = ADVANCED_FACE ( 'NONE', ( #46 ), #70, .T. ) ;
#273 =( LENGTH_UNIT ( ) NAMED_UNIT ( * ) SI_UNIT ( .MILLI., .METRE. ) );
#274 = ORIENTED_EDGE ( 'NONE', *, *, #41, .T. ) ;
#275 = CARTESIAN_POINT ( 'NONE',  ( 0.9255444251801512312, 1.257068152173702380, -0.4552364888863176251 ) ) ;
#276 = PERSON_AND_ORGANIZATION ( #19, #166 ) ;
#277 = DATE_AND_TIME ( #118, #200 ) ;
#278 = CC_DESIGN_APPROVAL ( #261, ( #241 ) ) ;
#279 = APPLICATION_CONTEXT ( 'configuration controlled 3d designs of mechanical parts and assemblies' ) ;
#280 = CIRCLE ( 'NONE', #183, 0.9500000000000005107 ) ;
#281 = DIRECTION ( 'NONE',  ( -1.000000000000000000, 0.0000000000000000000, 0.0000000000000000000 ) ) ;
#282 = AXIS2_PLACEMENT_3D ( 'NONE', #275, #124, #313 ) ;
#283 = FACE_OUTER_BOUND ( 'NONE', #246, .T. ) ;
#284 = DIRECTION ( 'NONE',  ( 0.7071067811865489050, 0.0000000000000000000, 0.7071067811865460184 ) ) ;
#285 = EDGE_LOOP ( 'NONE', ( #97, #189, #90, #218 ) ) ;
#286 = ORIENTED_EDGE ( 'NONE', *, *, #32, .T. ) ;
#287 = CARTESIAN_POINT ( 'NONE',  ( 1.925544425180151231, 1.257068152173702380, 2.295763511113682487 ) ) ;
#288 = EDGE_CURVE ( 'NONE', #165, #63, #85, .T. ) ;
#289 = LOCAL_TIME ( 10, 16, 58.00000000000000000, #299 ) ;
#290 = CC_DESIGN_APPROVAL ( #214, ( #87 ) ) ;
#291 = CARTESIAN_POINT ( 'NONE',  ( -0.07445557481984879655, 1.257068152173702602, 2.076526668337829840 ) ) ;
#292 = PLANE ( 'NONE',  #128 ) ;
#293 = CARTESIAN_POINT ( 'NONE',  ( -0.07445557481984879655, 1.257068152173702602, 2.295763511113682487 ) ) ;
#294 = UNCERTAINTY_MEASURE_WITH_UNIT (LENGTH_MEASURE( 1.000000000000000082E-05 ), #273, 'distance_accuracy_value', 'NONE');
#295 = VECTOR ( 'NONE', #89, 1000.000000000000000 ) ;
#296 = ORIENTED_EDGE ( 'NONE', *, *, #253, .F. ) ;
#297 = VERTEX_POINT ( 'NONE', #221 ) ;
#298 = EDGE_LOOP ( 'NONE', ( #143, #306, #107, #231, #160 ) ) ;
#299 = COORDINATED_UNIVERSAL_TIME_OFFSET ( 5, 0, .BEHIND. ) ;
#300 = LOCAL_TIME ( 10, 16, 58.00000000000000000, #309 ) ;
#301 = ORIENTED_EDGE ( 'NONE', *, *, #263, .T. ) ;
#302 = CC_DESIGN_PERSON_AND_ORGANIZATION_ASSIGNMENT ( #98, #146, ( #241 ) ) ;
#303 = EDGE_LOOP ( 'NONE', ( #274, #286, #186, #257 ) ) ;
#304 = EDGE_CURVE ( 'NONE', #37, #141, #255, .T. ) ;
#305 = CONICAL_SURFACE ( 'NONE', #147, 1.000000000000000000, 0.7853981633974503884 ) ;
#306 = ORIENTED_EDGE ( 'NONE', *, *, #22, .F. ) ;
#307 = ADVANCED_FACE ( 'NONE', ( #9 ), #267, .T. ) ;
#308 = ORIENTED_EDGE ( 'NONE', *, *, #288, .T. ) ;
#309 = COORDINATED_UNIVERSAL_TIME_OFFSET ( 5, 0, .BEHIND. ) ;
#310 = CARTESIAN_POINT ( 'NONE',  ( 0.0000000000000000000, 0.0000000000000000000, 0.0000000000000000000 ) ) ;
#311 = DIRECTION ( 'NONE',  ( -1.000000000000000000, 1.224646799147353207E-16, 0.0000000000000000000 ) ) ;
#312 = APPROVAL_STATUS ( 'not_yet_approved' ) ;
#313 = DIRECTION ( 'NONE',  ( 0.0000000000000000000, 1.000000000000000000, 0.0000000000000000000 ) ) ;
#314 = DIRECTION ( 'NONE',  ( 1.000000000000000000, 0.0000000000000000000, 0.0000000000000000000 ) ) ;
#315 = ORIENTED_EDGE ( 'NONE', *, *, #116, .F. ) ;
#316 = CARTESIAN_POINT ( 'NONE',  ( 0.9255444251801512312, 2.207068152173703002, 2.126526668337830106 ) ) ;
#317 = CIRCLE ( 'NONE', #174, 0.9500000000000005107 ) ;
#318 = DIRECTION ( 'NONE',  ( -0.0000000000000000000, -0.0000000000000000000, 1.000000000000000000 ) ) ;
#319 = EDGE_CURVE ( 'NONE', #244, #16, #135, .T. ) ;
#320 = DATE_AND_TIME ( #64, #43 ) ;
#321 = AXIS2_PLACEMENT_3D ( 'NONE', #12, #230, #84 ) ;
ENDSEC;
END-ISO-10303-21;
