ISO-10303-21;
HEADER;
FILE_DESCRIPTION (( 'STEP AP203' ),
    '1' );
FILE_NAME ('Web Model 41021MX_48461.step',
    '2017-10-30T12:54:13',
    ( '' ),
    ( '' ),
    'SwSTEP 2.0',
    'SolidWorks 2016',
    '' );
FILE_SCHEMA (( 'CONFIG_CONTROL_DESIGN' ));
ENDSEC;

DATA;
#1 = ORIENTED_EDGE ( 'NONE', *, *, #61, .F. ) ;
#2 = VERTEX_POINT ( 'NONE', #164 ) ;
#3 = ADVANCED_FACE ( 'NONE', ( #68 ), #78, .F. ) ;
#4 = PRODUCT ( 'Web Model 41021MX_48461', 'Web Model 41021MX_48461', '', ( #24 ) ) ;
#5 = ORIENTED_EDGE ( 'NONE', *, *, #183, .T. ) ;
#6 = COORDINATED_UNIVERSAL_TIME_OFFSET ( 5, 0, .BEHIND. ) ;
#7 = AXIS2_PLACEMENT_3D ( 'NONE', #54, #25, #58 ) ;
#8 = DIRECTION ( 'NONE',  ( 0.0000000000000000000, 0.0000000000000000000, 1.000000000000000000 ) ) ;
#9 = ORIENTED_EDGE ( 'NONE', *, *, #60, .T. ) ;
#10 = ORIENTED_EDGE ( 'NONE', *, *, #224, .T. ) ;
#11 = VECTOR ( 'NONE', #40, 1000.000000000000000 ) ;
#12 = VECTOR ( 'NONE', #51, 1000.000000000000000 ) ;
#13 = DIRECTION ( 'NONE',  ( 1.000000000000000000, 6.938893903907228400E-017, 0.0000000000000000000 ) ) ;
#14 = CARTESIAN_POINT ( 'NONE',  ( -12.50000000000000400, -6.250000000000001800, 4.750000000000000000 ) ) ;
#15 = CARTESIAN_POINT ( 'NONE',  ( -12.50000000000000400, 6.249999999999998200, -4.750000000000000000 ) ) ;
#16 = ORIENTED_EDGE ( 'NONE', *, *, #153, .F. ) ;
#17 = CARTESIAN_POINT ( 'NONE',  ( 0.0000000000000000000, 0.0000000000000000000, 4.750000000000000000 ) ) ;
#18 = DATE_TIME_ROLE ( 'creation_date' ) ;
#19 = CC_DESIGN_PERSON_AND_ORGANIZATION_ASSIGNMENT ( #96, #21, ( #146 ) ) ;
#20 = APPROVAL_ROLE ( '' ) ;
#21 = PERSON_AND_ORGANIZATION_ROLE ( 'creator' ) ;
#22 = PERSON_AND_ORGANIZATION ( #194, #225 ) ;
#23 = ORIENTED_EDGE ( 'NONE', *, *, #229, .F. ) ;
#24 = MECHANICAL_CONTEXT ( 'NONE', #133, 'mechanical' ) ;
#25 = DIRECTION ( 'NONE',  ( -1.387778780781445700E-016, 1.000000000000000000, 0.0000000000000000000 ) ) ;
#26 = ORIENTED_EDGE ( 'NONE', *, *, #229, .T. ) ;
#27 = LINE ( 'NONE', #211, #151 ) ;
#28 = CARTESIAN_POINT ( 'NONE',  ( 12.49999999999999600, -6.249999999999998200, 4.750000000000000000 ) ) ;
#29 = APPROVAL_STATUS ( 'not_yet_approved' ) ;
#30 = SECURITY_CLASSIFICATION ( '', '', #179 ) ;
#31 = APPROVAL_DATE_TIME ( #67, #196 ) ;
#32 = CC_DESIGN_PERSON_AND_ORGANIZATION_ASSIGNMENT ( #81, #158, ( #122 ) ) ;
#33 = VECTOR ( 'NONE', #103, 1000.000000000000000 ) ;
#34 = DATE_AND_TIME ( #134, #200 ) ;
#35 = LINE ( 'NONE', #189, #97 ) ;
#36 = CARTESIAN_POINT ( 'NONE',  ( 12.49999999999999600, -6.249999999999998200, -4.750000000000000000 ) ) ;
#37 = DIRECTION ( 'NONE',  ( 0.0000000000000000000, -0.0000000000000000000, 1.000000000000000000 ) ) ;
#38 = LINE ( 'NONE', #53, #107 ) ;
#39 = CARTESIAN_POINT ( 'NONE',  ( -12.50000000000000400, -6.250000000000001800, 4.750000000000000000 ) ) ;
#40 = DIRECTION ( 'NONE',  ( -0.0000000000000000000, -1.000000000000000000, -0.0000000000000000000 ) ) ;
#41 = CARTESIAN_POINT ( 'NONE',  ( 12.49999999999999600, 6.250000000000000000, 4.750000000000000000 ) ) ;
#42 = PERSON_AND_ORGANIZATION ( #194, #225 ) ;
#43 = ADVANCED_FACE ( 'NONE', ( #202 ), #186, .F. ) ;
#44 = PERSON_AND_ORGANIZATION_ROLE ( 'creator' ) ;
#45 = FACE_OUTER_BOUND ( 'NONE', #64, .T. ) ;
#46 = CALENDAR_DATE ( 2017, 30, 10 ) ;
#47 = APPROVAL ( #29, 'UNSPECIFIED' ) ;
#48 = DIRECTION ( 'NONE',  ( 6.938893903907228400E-017, -1.000000000000000000, 0.0000000000000000000 ) ) ;
#49 = DIRECTION ( 'NONE',  ( 0.0000000000000000000, 0.0000000000000000000, 1.000000000000000000 ) ) ;
#50 = EDGE_CURVE ( 'NONE', #65, #119, #154, .T. ) ;
#51 = DIRECTION ( 'NONE',  ( 0.0000000000000000000, 1.000000000000000000, 0.0000000000000000000 ) ) ;
#52 = VECTOR ( 'NONE', #87, 1000.000000000000000 ) ;
#53 = CARTESIAN_POINT ( 'NONE',  ( 12.49999999999999600, -6.249999999999998200, 4.750000000000000000 ) ) ;
#54 = CARTESIAN_POINT ( 'NONE',  ( 12.49999999999999600, -6.249999999999998200, 4.750000000000000000 ) ) ;
#55 = ORIENTED_EDGE ( 'NONE', *, *, #177, .T. ) ;
#56 = CARTESIAN_POINT ( 'NONE',  ( 0.0000000000000000000, 0.0000000000000000000, 0.0000000000000000000 ) ) ;
#57 = PERSON_AND_ORGANIZATION ( #194, #225 ) ;
#58 = DIRECTION ( 'NONE',  ( -1.000000000000000000, -1.387778780781445700E-016, 0.0000000000000000000 ) ) ;
#59 = APPROVAL_STATUS ( 'not_yet_approved' ) ;
#60 = EDGE_CURVE ( 'NONE', #184, #2, #115, .T. ) ;
#61 = EDGE_CURVE ( 'NONE', #173, #2, #35, .T. ) ;
#62 = ADVANCED_FACE ( 'NONE', ( #204 ), #172, .F. ) ;
#63 = APPROVAL_DATE_TIME ( #143, #47 ) ;
#64 = EDGE_LOOP ( 'NONE', ( #227, #110, #197, #223 ) ) ;
#65 = VERTEX_POINT ( 'NONE', #15 ) ;
#66 = VECTOR ( 'NONE', #116, 1000.000000000000000 ) ;
#67 = DATE_AND_TIME ( #112, #90 ) ;
#68 = FACE_OUTER_BOUND ( 'NONE', #106, .T. ) ;
#69 =( LENGTH_UNIT ( ) NAMED_UNIT ( * ) SI_UNIT ( .MILLI., .METRE. ) );
#70 = CARTESIAN_POINT ( 'NONE',  ( 0.0000000000000000000, 0.0000000000000000000, -4.750000000000000000 ) ) ;
#71 = EDGE_LOOP ( 'NONE', ( #141, #16, #192, #128 ) ) ;
#72 =( GEOMETRIC_REPRESENTATION_CONTEXT ( 3 ) GLOBAL_UNCERTAINTY_ASSIGNED_CONTEXT ( ( #212 ) ) GLOBAL_UNIT_ASSIGNED_CONTEXT ( ( #69, #236, #120 ) ) REPRESENTATION_CONTEXT ( 'NONE', 'WORKASPACE' ) );
#73 = CC_DESIGN_PERSON_AND_ORGANIZATION_ASSIGNMENT ( #22, #75, ( #4 ) ) ;
#74 = DIRECTION ( 'NONE',  ( 1.000000000000000000, 0.0000000000000000000, -0.0000000000000000000 ) ) ;
#75 = PERSON_AND_ORGANIZATION_ROLE ( 'design_owner' ) ;
#76 = EDGE_LOOP ( 'NONE', ( #5, #221, #140, #26 ) ) ;
#77 = EDGE_LOOP ( 'NONE', ( #160, #207, #102, #55 ) ) ;
#78 = PLANE ( 'NONE',  #222 ) ;
#79 = PERSON_AND_ORGANIZATION_ROLE ( 'classification_officer' ) ;
#80 = AXIS2_PLACEMENT_3D ( 'NONE', #17, #37, #104 ) ;
#81 = PERSON_AND_ORGANIZATION ( #194, #225 ) ;
#82 = APPROVAL_PERSON_ORGANIZATION ( #57, #196, #174 ) ;
#83 = DIRECTION ( 'NONE',  ( 1.000000000000000000, 0.0000000000000000000, 0.0000000000000000000 ) ) ;
#84 = CARTESIAN_POINT ( 'NONE',  ( -12.50000000000000400, -6.250000000000001800, -4.750000000000000000 ) ) ;
#85 = CARTESIAN_POINT ( 'NONE',  ( -12.50000000000000400, 6.249999999999998200, 4.750000000000000000 ) ) ;
#86 = LINE ( 'NONE', #14, #135 ) ;
#87 = DIRECTION ( 'NONE',  ( 1.000000000000000000, 1.387778780781445700E-016, -0.0000000000000000000 ) ) ;
#88 = DIRECTION ( 'NONE',  ( -0.0000000000000000000, -0.0000000000000000000, -1.000000000000000000 ) ) ;
#89 = PRODUCT_RELATED_PRODUCT_CATEGORY ( 'detail', '', ( #4 ) ) ;
#90 = LOCAL_TIME ( 8, 54, 13.00000000000000000, #181 ) ;
#91 = COORDINATED_UNIVERSAL_TIME_OFFSET ( 5, 0, .BEHIND. ) ;
#92 = LINE ( 'NONE', #213, #66 ) ;
#93 = AXIS2_PLACEMENT_3D ( 'NONE', #206, #48, #13 ) ;
#94 = ORIENTED_EDGE ( 'NONE', *, *, #177, .F. ) ;
#95 = PERSON_AND_ORGANIZATION ( #194, #225 ) ;
#96 = PERSON_AND_ORGANIZATION ( #194, #225 ) ;
#97 = VECTOR ( 'NONE', #88, 1000.000000000000000 ) ;
#98 = CC_DESIGN_DATE_AND_TIME_ASSIGNMENT ( #191, #220, ( #30 ) ) ;
#99 = AXIS2_PLACEMENT_3D ( 'NONE', #39, #121, #138 ) ;
#100 = DIRECTION ( 'NONE',  ( 0.0000000000000000000, 1.000000000000000000, 0.0000000000000000000 ) ) ;
#101 = LOCAL_TIME ( 8, 54, 13.00000000000000000, #91 ) ;
#102 = ORIENTED_EDGE ( 'NONE', *, *, #183, .F. ) ;
#103 = DIRECTION ( 'NONE',  ( 1.000000000000000000, 1.387778780781445700E-016, -0.0000000000000000000 ) ) ;
#104 = DIRECTION ( 'NONE',  ( 1.000000000000000000, 0.0000000000000000000, -0.0000000000000000000 ) ) ;
#105 = CARTESIAN_POINT ( 'NONE',  ( -12.50000000000000400, -6.250000000000001800, 4.750000000000000000 ) ) ;
#106 = EDGE_LOOP ( 'NONE', ( #9, #1, #201, #10 ) ) ;
#107 = VECTOR ( 'NONE', #166, 1000.000000000000000 ) ;
#108 = ADVANCED_FACE ( 'NONE', ( #45 ), #219, .F. ) ;
#109 = DIRECTION ( 'NONE',  ( -1.000000000000000000, -6.938893903907228400E-017, 0.0000000000000000000 ) ) ;
#110 = ORIENTED_EDGE ( 'NONE', *, *, #224, .F. ) ;
#111 = SHAPE_DEFINITION_REPRESENTATION ( #226, #235 ) ;
#112 = CALENDAR_DATE ( 2017, 30, 10 ) ;
#113 = LINE ( 'NONE', #230, #210 ) ;
#114 = LOCAL_TIME ( 8, 54, 13.00000000000000000, #6 ) ;
#115 = LINE ( 'NONE', #36, #12 ) ;
#116 = DIRECTION ( 'NONE',  ( -0.0000000000000000000, -1.000000000000000000, -0.0000000000000000000 ) ) ;
#117 = EDGE_CURVE ( 'NONE', #139, #165, #188, .T. ) ;
#118 = MANIFOLD_SOLID_BREP ( 'Boss-Extrude1', #147 ) ;
#119 = VERTEX_POINT ( 'NONE', #155 ) ;
#120 =( NAMED_UNIT ( * ) SI_UNIT ( $, .STERADIAN. ) SOLID_ANGLE_UNIT ( ) );
#121 = DIRECTION ( 'NONE',  ( 1.000000000000000000, 0.0000000000000000000, 0.0000000000000000000 ) ) ;
#122 = PRODUCT_DEFINITION_FORMATION_WITH_SPECIFIED_SOURCE ( 'ANY', '', #4, .NOT_KNOWN. ) ;
#123 = APPLICATION_PROTOCOL_DEFINITION ( 'international standard', 'config_control_design', 1994, #125 ) ;
#124 = AXIS2_PLACEMENT_3D ( 'NONE', #56, #49, #83 ) ;
#125 = APPLICATION_CONTEXT ( 'configuration controlled 3d designs of mechanical parts and assemblies' ) ;
#126 = CARTESIAN_POINT ( 'NONE',  ( 12.49999999999999600, -6.249999999999998200, 4.750000000000000000 ) ) ;
#127 = DATE_AND_TIME ( #185, #157 ) ;
#128 = ORIENTED_EDGE ( 'NONE', *, *, #216, .F. ) ;
#129 = COORDINATED_UNIVERSAL_TIME_OFFSET ( 5, 0, .BEHIND. ) ;
#130 = APPROVAL_PERSON_ORGANIZATION ( #228, #142, #20 ) ;
#131 = LINE ( 'NONE', #205, #33 ) ;
#132 = APPROVAL_PERSON_ORGANIZATION ( #42, #47, #199 ) ;
#133 = APPLICATION_CONTEXT ( 'configuration controlled 3d designs of mechanical parts and assemblies' ) ;
#134 = CALENDAR_DATE ( 2017, 30, 10 ) ;
#135 = VECTOR ( 'NONE', #136, 1000.000000000000000 ) ;
#136 = DIRECTION ( 'NONE',  ( -0.0000000000000000000, -0.0000000000000000000, -1.000000000000000000 ) ) ;
#137 = DIRECTION ( 'NONE',  ( 0.0000000000000000000, -0.0000000000000000000, 1.000000000000000000 ) ) ;
#138 = DIRECTION ( 'NONE',  ( 0.0000000000000000000, 0.0000000000000000000, -1.000000000000000000 ) ) ;
#139 = VERTEX_POINT ( 'NONE', #105 ) ;
#140 = ORIENTED_EDGE ( 'NONE', *, *, #171, .T. ) ;
#141 = ORIENTED_EDGE ( 'NONE', *, *, #50, .F. ) ;
#142 = APPROVAL ( #176, 'UNSPECIFIED' ) ;
#143 = DATE_AND_TIME ( #231, #114 ) ;
#144 = CC_DESIGN_PERSON_AND_ORGANIZATION_ASSIGNMENT ( #162, #44, ( #122 ) ) ;
#145 = ORIENTED_EDGE ( 'NONE', *, *, #61, .T. ) ;
#146 = PRODUCT_DEFINITION ( 'UNKNOWN', '', #122, #208 ) ;
#147 = CLOSED_SHELL ( 'NONE', ( #62, #108, #3, #43, #218, #159 ) ) ;
#148 = CC_DESIGN_DATE_AND_TIME_ASSIGNMENT ( #127, #18, ( #146 ) ) ;
#149 = CC_DESIGN_APPROVAL ( #47, ( #30 ) ) ;
#150 = APPROVAL_DATE_TIME ( #34, #142 ) ;
#151 = VECTOR ( 'NONE', #109, 1000.000000000000000 ) ;
#152 = APPLICATION_PROTOCOL_DEFINITION ( 'international standard', 'config_control_design', 1994, #133 ) ;
#153 = EDGE_CURVE ( 'NONE', #2, #65, #27, .T. ) ;
#154 = LINE ( 'NONE', #84, #11 ) ;
#155 = CARTESIAN_POINT ( 'NONE',  ( -12.50000000000000400, -6.250000000000001800, -4.750000000000000000 ) ) ;
#156 = CC_DESIGN_APPROVAL ( #196, ( #122 ) ) ;
#157 = LOCAL_TIME ( 8, 54, 13.00000000000000000, #129 ) ;
#158 = PERSON_AND_ORGANIZATION_ROLE ( 'design_supplier' ) ;
#159 = ADVANCED_FACE ( 'NONE', ( #163 ), #214, .F. ) ;
#160 = ORIENTED_EDGE ( 'NONE', *, *, #50, .T. ) ;
#161 = CC_DESIGN_SECURITY_CLASSIFICATION ( #30, ( #122 ) ) ;
#162 = PERSON_AND_ORGANIZATION ( #194, #225 ) ;
#163 = FACE_OUTER_BOUND ( 'NONE', #71, .T. ) ;
#164 = CARTESIAN_POINT ( 'NONE',  ( 12.49999999999999600, 6.250000000000000000, -4.750000000000000000 ) ) ;
#165 = VERTEX_POINT ( 'NONE', #195 ) ;
#166 = DIRECTION ( 'NONE',  ( -0.0000000000000000000, -0.0000000000000000000, -1.000000000000000000 ) ) ;
#167 = CC_DESIGN_PERSON_AND_ORGANIZATION_ASSIGNMENT ( #95, #79, ( #30 ) ) ;
#168 = CARTESIAN_POINT ( 'NONE',  ( 12.49999999999999600, -6.249999999999998200, -4.750000000000000000 ) ) ;
#169 = ORIENTED_EDGE ( 'NONE', *, *, #153, .T. ) ;
#170 = CARTESIAN_POINT ( 'NONE',  ( -12.50000000000000400, 6.249999999999998200, 4.750000000000000000 ) ) ;
#171 = EDGE_CURVE ( 'NONE', #165, #173, #113, .T. ) ;
#172 = PLANE ( 'NONE',  #99 ) ;
#173 = VERTEX_POINT ( 'NONE', #190 ) ;
#174 = APPROVAL_ROLE ( '' ) ;
#175 = COORDINATED_UNIVERSAL_TIME_OFFSET ( 5, 0, .BEHIND. ) ;
#176 = APPROVAL_STATUS ( 'not_yet_approved' ) ;
#177 = EDGE_CURVE ( 'NONE', #180, #65, #203, .T. ) ;
#178 = DIRECTION ( 'NONE',  ( -1.000000000000000000, 0.0000000000000000000, 0.0000000000000000000 ) ) ;
#179 = SECURITY_CLASSIFICATION_LEVEL ( 'unclassified' ) ;
#180 = VERTEX_POINT ( 'NONE', #170 ) ;
#181 = COORDINATED_UNIVERSAL_TIME_OFFSET ( 5, 0, .BEHIND. ) ;
#182 = VECTOR ( 'NONE', #209, 1000.000000000000000 ) ;
#183 = EDGE_CURVE ( 'NONE', #180, #139, #92, .T. ) ;
#184 = VERTEX_POINT ( 'NONE', #168 ) ;
#185 = CALENDAR_DATE ( 2017, 30, 10 ) ;
#186 = PLANE ( 'NONE',  #93 ) ;
#187 = PLANE ( 'NONE',  #80 ) ;
#188 = LINE ( 'NONE', #126, #52 ) ;
#189 = CARTESIAN_POINT ( 'NONE',  ( 12.49999999999999600, 6.250000000000000000, 4.750000000000000000 ) ) ;
#190 = CARTESIAN_POINT ( 'NONE',  ( 12.49999999999999600, 6.250000000000000000, 4.750000000000000000 ) ) ;
#191 = DATE_AND_TIME ( #46, #101 ) ;
#192 = ORIENTED_EDGE ( 'NONE', *, *, #60, .F. ) ;
#193 = LINE ( 'NONE', #41, #198 ) ;
#194 = PERSON ( 'UNSPECIFIED', 'UNSPECIFIED', 'UNSPECIFIED', ('UNSPECIFIED'), ('UNSPECIFIED'), ('UNSPECIFIED') ) ;
#195 = CARTESIAN_POINT ( 'NONE',  ( 12.49999999999999600, -6.249999999999998200, 4.750000000000000000 ) ) ;
#196 = APPROVAL ( #59, 'UNSPECIFIED' ) ;
#197 = ORIENTED_EDGE ( 'NONE', *, *, #117, .F. ) ;
#198 = VECTOR ( 'NONE', #233, 1000.000000000000000 ) ;
#199 = APPROVAL_ROLE ( '' ) ;
#200 = LOCAL_TIME ( 8, 54, 13.00000000000000000, #175 ) ;
#201 = ORIENTED_EDGE ( 'NONE', *, *, #171, .F. ) ;
#202 = FACE_OUTER_BOUND ( 'NONE', #217, .T. ) ;
#203 = LINE ( 'NONE', #85, #182 ) ;
#204 = FACE_OUTER_BOUND ( 'NONE', #77, .T. ) ;
#205 = CARTESIAN_POINT ( 'NONE',  ( 12.49999999999999600, -6.249999999999998200, -4.750000000000000000 ) ) ;
#206 = CARTESIAN_POINT ( 'NONE',  ( 12.49999999999999600, 6.250000000000000000, 4.750000000000000000 ) ) ;
#207 = ORIENTED_EDGE ( 'NONE', *, *, #234, .F. ) ;
#208 = DESIGN_CONTEXT ( 'detailed design', #125, 'design' ) ;
#209 = DIRECTION ( 'NONE',  ( -0.0000000000000000000, -0.0000000000000000000, -1.000000000000000000 ) ) ;
#210 = VECTOR ( 'NONE', #100, 1000.000000000000000 ) ;
#211 = CARTESIAN_POINT ( 'NONE',  ( 12.49999999999999600, 6.250000000000000000, -4.750000000000000000 ) ) ;
#212 = UNCERTAINTY_MEASURE_WITH_UNIT (LENGTH_MEASURE( 1.000000000000000100E-005 ), #69, 'distance_accuracy_value', 'NONE');
#213 = CARTESIAN_POINT ( 'NONE',  ( -12.50000000000000400, -6.250000000000001800, 4.750000000000000000 ) ) ;
#214 = PLANE ( 'NONE',  #215 ) ;
#215 = AXIS2_PLACEMENT_3D ( 'NONE', #70, #137, #74 ) ;
#216 = EDGE_CURVE ( 'NONE', #119, #184, #131, .T. ) ;
#217 = EDGE_LOOP ( 'NONE', ( #169, #94, #23, #145 ) ) ;
#218 = ADVANCED_FACE ( 'NONE', ( #232 ), #187, .T. ) ;
#219 = PLANE ( 'NONE',  #7 ) ;
#220 = DATE_TIME_ROLE ( 'classification_date' ) ;
#221 = ORIENTED_EDGE ( 'NONE', *, *, #117, .T. ) ;
#222 = AXIS2_PLACEMENT_3D ( 'NONE', #28, #178, #8 ) ;
#223 = ORIENTED_EDGE ( 'NONE', *, *, #234, .T. ) ;
#224 = EDGE_CURVE ( 'NONE', #165, #184, #38, .T. ) ;
#225 = ORGANIZATION ( 'UNSPECIFIED', 'UNSPECIFIED', '' ) ;
#226 = PRODUCT_DEFINITION_SHAPE ( 'NONE', 'NONE',  #146 ) ;
#227 = ORIENTED_EDGE ( 'NONE', *, *, #216, .T. ) ;
#228 = PERSON_AND_ORGANIZATION ( #194, #225 ) ;
#229 = EDGE_CURVE ( 'NONE', #173, #180, #193, .T. ) ;
#230 = CARTESIAN_POINT ( 'NONE',  ( 12.49999999999999600, -6.249999999999998200, 4.750000000000000000 ) ) ;
#231 = CALENDAR_DATE ( 2017, 30, 10 ) ;
#232 = FACE_OUTER_BOUND ( 'NONE', #76, .T. ) ;
#233 = DIRECTION ( 'NONE',  ( -1.000000000000000000, -6.938893903907228400E-017, 0.0000000000000000000 ) ) ;
#234 = EDGE_CURVE ( 'NONE', #139, #119, #86, .T. ) ;
#235 = ADVANCED_BREP_SHAPE_REPRESENTATION ( 'Web Model 41021MX_48461', ( #118, #124 ), #72 ) ;
#236 =( NAMED_UNIT ( * ) PLANE_ANGLE_UNIT ( ) SI_UNIT ( $, .RADIAN. ) );
#237 = CC_DESIGN_APPROVAL ( #142, ( #146 ) ) ;
ENDSEC;
END-ISO-10303-21;
