ISO-10303-21;
HEADER;
FILE_DESCRIPTION (( 'STEP AP203' ),
    '1' );
FILE_NAME ('4349-E0W.STEP',
    '2015-06-17T20:54:44',
    ( 'admin' ),
    ( '' ),
    'SwSTEP 2.0',
    'SolidWorks 2014',
    '' );
FILE_SCHEMA (( 'CONFIG_CONTROL_DESIGN' ));
ENDSEC;

DATA;
#1 = ORIENTED_EDGE ( 'NONE', *, *, #23, .T. ) ;
#2 = DIRECTION ( 'NONE',  ( 1.000000000000000000, 0.0000000000000000000, 0.0000000000000000000 ) ) ;
#3 = CC_DESIGN_APPROVAL ( #190, ( #95 ) ) ;
#4 = EDGE_LOOP ( 'NONE', ( #304, #184, #296, #27 ) ) ;
#5 = VECTOR ( 'NONE', #247, 1000.000000000000100 ) ;
#6 = PERSON_AND_ORGANIZATION ( #306, #114 ) ;
#7 = AXIS2_PLACEMENT_3D ( 'NONE', #21, #240, #10 ) ;
#8 = DIRECTION ( 'NONE',  ( 1.000000000000000000, 0.0000000000000000000, 0.0000000000000000000 ) ) ;
#9 = APPLICATION_CONTEXT ( 'configuration controlled 3d designs of mechanical parts and assemblies' ) ;
#10 = DIRECTION ( 'NONE',  ( 1.000000000000000000, 0.0000000000000000000, 0.0000000000000000000 ) ) ;
#11 = VECTOR ( 'NONE', #20, 1000.000000000000000 ) ;
#12 = CALENDAR_DATE ( 2015, 17, 6 ) ;
#13 = CARTESIAN_POINT ( 'NONE',  ( 0.0000000000000000000, 0.0000000000000000000, -1.851234001522119400 ) ) ;
#14 = AXIS2_PLACEMENT_3D ( 'NONE', #186, #136, #60 ) ;
#15 = PLANE ( 'NONE',  #210 ) ;
#16 = ADVANCED_FACE ( 'NONE', ( #101 ), #35, .F. ) ;
#17 = EDGE_CURVE ( 'NONE', #300, #64, #128, .T. ) ;
#18 = DIRECTION ( 'NONE',  ( -0.0000000000000000000, -0.0000000000000000000, 1.000000000000000000 ) ) ;
#19 = ORIENTED_EDGE ( 'NONE', *, *, #63, .T. ) ;
#20 = DIRECTION ( 'NONE',  ( 0.7311025027759052700, 8.953423398731312400E-017, -0.6822676384197096100 ) ) ;
#21 = CARTESIAN_POINT ( 'NONE',  ( 0.0000000000000000000, 0.0000000000000000000, -1.851234001522119400 ) ) ;
#22 = ORIENTED_EDGE ( 'NONE', *, *, #43, .F. ) ;
#23 = EDGE_CURVE ( 'NONE', #251, #147, #224, .T. ) ;
#24 = DIRECTION ( 'NONE',  ( -0.7311025027759052700, 0.0000000000000000000, -0.6822676384197096100 ) ) ;
#25 = CARTESIAN_POINT ( 'NONE',  ( 0.0000000000000000000, 0.0000000000000000000, 1.868171644333490400 ) ) ;
#26 = EDGE_CURVE ( 'NONE', #141, #164, #150, .T. ) ;
#27 = ORIENTED_EDGE ( 'NONE', *, *, #71, .T. ) ;
#28 = PRODUCT ( '4349-E0W', '4349-E0W', '', ( #80 ) ) ;
#29 = ORIENTED_EDGE ( 'NONE', *, *, #57, .F. ) ;
#30 = EDGE_CURVE ( 'NONE', #147, #164, #167, .T. ) ;
#31 =( NAMED_UNIT ( * ) PLANE_ANGLE_UNIT ( ) SI_UNIT ( $, .RADIAN. ) );
#32 = DIRECTION ( 'NONE',  ( 1.000000000000000000, 0.0000000000000000000, 0.0000000000000000000 ) ) ;
#33 = EDGE_CURVE ( 'NONE', #301, #147, #279, .T. ) ;
#34 = CIRCLE ( 'NONE', #199, 92.00000000000000000 ) ;
#35 = SPHERICAL_SURFACE ( 'NONE', #116, 92.00000000000000000 ) ;
#36 = EDGE_CURVE ( 'NONE', #69, #251, #111, .T. ) ;
#37 = CONICAL_SURFACE ( 'NONE', #204, 6.350000000000001400, 0.7853981633974482800 ) ;
#38 = EDGE_CURVE ( 'NONE', #64, #69, #299, .T. ) ;
#39 = DIRECTION ( 'NONE',  ( -1.000000000000000000, 0.0000000000000000000, 0.0000000000000000000 ) ) ;
#40 = DIRECTION ( 'NONE',  ( -0.0000000000000000000, -0.0000000000000000000, 1.000000000000000000 ) ) ;
#41 = EDGE_LOOP ( 'NONE', ( #180, #1, #62, #82 ) ) ;
#42 = EDGE_CURVE ( 'NONE', #69, #164, #232, .T. ) ;
#43 = EDGE_CURVE ( 'NONE', #300, #251, #153, .T. ) ;
#44 = DIRECTION ( 'NONE',  ( -0.7071067811865474600, 8.659560562354932900E-017, 0.7071067811865474600 ) ) ;
#45 = CARTESIAN_POINT ( 'NONE',  ( 6.100255672336865900, 7.623582878846760300E-016, 2.101234001522122300 ) ) ;
#46 = PERSON_AND_ORGANIZATION ( #306, #114 ) ;
#47 = DIRECTION ( 'NONE',  ( 0.0000000000000000000, 0.0000000000000000000, -1.000000000000000000 ) ) ;
#48 = COORDINATED_UNIVERSAL_TIME_OFFSET ( 5, 0, .BEHIND. ) ;
#49 = CARTESIAN_POINT ( 'NONE',  ( 6.350000000000001400, 0.0000000000000000000, -1.851234001522119400 ) ) ;
#50 = EDGE_CURVE ( 'NONE', #90, #118, #34, .T. ) ;
#51 = CARTESIAN_POINT ( 'NONE',  ( 0.0000000000000000000, 0.0000000000000000000, -1.851234001522119400 ) ) ;
#52 = AXIS2_PLACEMENT_3D ( 'NONE', #258, #53, #103 ) ;
#53 = DIRECTION ( 'NONE',  ( -1.000000000000000000, 0.0000000000000000000, 0.0000000000000000000 ) ) ;
#54 = ORIENTED_EDGE ( 'NONE', *, *, #33, .F. ) ;
#55 = APPROVAL_ROLE ( '' ) ;
#56 = EDGE_CURVE ( 'NONE', #90, #203, #280, .T. ) ;
#57 = EDGE_CURVE ( 'NONE', #203, #141, #248, .T. ) ;
#58 = APPROVAL_DATE_TIME ( #143, #139 ) ;
#59 = SHAPE_DEFINITION_REPRESENTATION ( #303, #181 ) ;
#60 = DIRECTION ( 'NONE',  ( -1.000000000000000000, 0.0000000000000000000, 0.0000000000000000000 ) ) ;
#61 = CARTESIAN_POINT ( 'NONE',  ( -6.100255672336873000, 0.0000000000000000000, 2.101234001522094700 ) ) ;
#62 = ORIENTED_EDGE ( 'NONE', *, *, #30, .T. ) ;
#63 = EDGE_CURVE ( 'NONE', #301, #203, #289, .T. ) ;
#64 = VERTEX_POINT ( 'NONE', #222 ) ;
#65 = EDGE_CURVE ( 'NONE', #251, #69, #255, .T. ) ;
#66 = SPHERICAL_SURFACE ( 'NONE', #52, 92.00000000000000000 ) ;
#67 = DIRECTION ( 'NONE',  ( -0.0000000000000000000, -0.0000000000000000000, 1.000000000000000000 ) ) ;
#68 = ORIENTED_EDGE ( 'NONE', *, *, #123, .F. ) ;
#69 = VERTEX_POINT ( 'NONE', #294 ) ;
#70 = CC_DESIGN_PERSON_AND_ORGANIZATION_ASSIGNMENT ( #6, #175, ( #144 ) ) ;
#71 = EDGE_CURVE ( 'NONE', #164, #147, #285, .T. ) ;
#72 = EDGE_CURVE ( 'NONE', #64, #300, #250, .T. ) ;
#73 = CONICAL_SURFACE ( 'NONE', #225, 6.100255672336873000, 0.8199364935065428500 ) ;
#74 = ORIENTED_EDGE ( 'NONE', *, *, #63, .F. ) ;
#75 = EDGE_CURVE ( 'NONE', #141, #118, #81, .T. ) ;
#76 = APPROVAL_ROLE ( '' ) ;
#77 = DIRECTION ( 'NONE',  ( -1.000000000000000000, 0.0000000000000000000, 0.0000000000000000000 ) ) ;
#78 = CLOSED_SHELL ( 'NONE', ( #124, #142, #193, #213, #16, #287, #307, #235, #105 ) ) ;
#79 = CARTESIAN_POINT ( 'NONE',  ( 0.0000000000000000000, 0.0000000000000000000, 2.101234001522122300 ) ) ;
#80 = MECHANICAL_CONTEXT ( 'NONE', #282, 'mechanical' ) ;
#81 = CIRCLE ( 'NONE', #269, 6.100255672336865900 ) ;
#82 = ORIENTED_EDGE ( 'NONE', *, *, #42, .F. ) ;
#83 = PERSON_AND_ORGANIZATION ( #306, #114 ) ;
#84 = CYLINDRICAL_SURFACE ( 'NONE', #311, 6.350000000000001400 ) ;
#85 = DIRECTION ( 'NONE',  ( 0.0000000000000000000, 0.0000000000000000000, -1.000000000000000000 ) ) ;
#86 = ORIENTED_EDGE ( 'NONE', *, *, #65, .F. ) ;
#87 = CARTESIAN_POINT ( 'NONE',  ( 0.0000000000000000000, 0.0000000000000000000, 93.89876599847788400 ) ) ;
#88 = CC_DESIGN_PERSON_AND_ORGANIZATION_ASSIGNMENT ( #197, #182, ( #95 ) ) ;
#89 = DIRECTION ( 'NONE',  ( -1.224646799147353200E-016, -1.000000000000000000, 0.0000000000000000000 ) ) ;
#90 = VERTEX_POINT ( 'NONE', #171 ) ;
#91 = DIRECTION ( 'NONE',  ( 1.000000000000000000, 0.0000000000000000000, 0.0000000000000000000 ) ) ;
#92 = CARTESIAN_POINT ( 'NONE',  ( 0.0000000000000000000, 0.0000000000000000000, 2.101234001522122300 ) ) ;
#93 = EDGE_LOOP ( 'NONE', ( #238, #160, #266, #259 ) ) ;
#94 = DATE_AND_TIME ( #12, #243 ) ;
#95 = PRODUCT_DEFINITION ( 'UNKNOWN', '', #106, #253 ) ;
#96 = DIRECTION ( 'NONE',  ( 0.0000000000000000000, 0.0000000000000000000, -1.000000000000000000 ) ) ;
#97 = APPLICATION_PROTOCOL_DEFINITION ( 'international standard', 'config_control_design', 1994, #9 ) ;
#98 = EDGE_LOOP ( 'NONE', ( #318, #270, #156, #54, #68 ) ) ;
#99 = ORIENTED_EDGE ( 'NONE', *, *, #36, .F. ) ;
#100 = DIRECTION ( 'NONE',  ( 0.0000000000000000000, 0.0000000000000000000, -1.000000000000000000 ) ) ;
#101 = FACE_OUTER_BOUND ( 'NONE', #310, .T. ) ;
#102 = CARTESIAN_POINT ( 'NONE',  ( -6.350000000000001400, 7.776507174585694100E-016, 1.868171644333490400 ) ) ;
#103 = DIRECTION ( 'NONE',  ( 0.0000000000000000000, 1.000000000000000000, 0.0000000000000000000 ) ) ;
#104 = ORIENTED_EDGE ( 'NONE', *, *, #50, .T. ) ;
#105 = ADVANCED_FACE ( 'NONE', ( #140 ), #274, .T. ) ;
#106 = PRODUCT_DEFINITION_FORMATION_WITH_SPECIFIED_SOURCE ( 'ANY', '', #28, .NOT_KNOWN. ) ;
#107 = APPROVAL_ROLE ( '' ) ;
#108 = ORIENTED_EDGE ( 'NONE', *, *, #17, .T. ) ;
#109 = APPROVAL_STATUS ( 'not_yet_approved' ) ;
#110 = CARTESIAN_POINT ( 'NONE',  ( 0.0000000000000000000, 0.0000000000000000000, 93.89876599847788400 ) ) ;
#111 = CIRCLE ( 'NONE', #7, 6.350000000000001400 ) ;
#112 = DATE_AND_TIME ( #262, #162 ) ;
#113 = DIRECTION ( 'NONE',  ( -0.0000000000000000000, -0.0000000000000000000, 1.000000000000000000 ) ) ;
#114 = ORGANIZATION ( 'UNSPECIFIED', 'UNSPECIFIED', '' ) ;
#115 = ORIENTED_EDGE ( 'NONE', *, *, #33, .T. ) ;
#116 = AXIS2_PLACEMENT_3D ( 'NONE', #155, #127, #321 ) ;
#117 = APPROVAL_PERSON_ORGANIZATION ( #314, #190, #55 ) ;
#118 = VERTEX_POINT ( 'NONE', #195 ) ;
#119 = APPROVAL_PERSON_ORGANIZATION ( #46, #229, #107 ) ;
#120 = DIRECTION ( 'NONE',  ( 1.000000000000000000, 0.0000000000000000000, 0.0000000000000000000 ) ) ;
#121 = CARTESIAN_POINT ( 'NONE',  ( 6.350000000000001400, 0.0000000000000000000, 1.898765998477877700 ) ) ;
#122 = ORIENTED_EDGE ( 'NONE', *, *, #17, .F. ) ;
#123 = EDGE_CURVE ( 'NONE', #118, #301, #273, .T. ) ;
#124 = ADVANCED_FACE ( 'NONE', ( #295 ), #73, .T. ) ;
#125 = AXIS2_PLACEMENT_3D ( 'NONE', #192, #96, #2 ) ;
#126 = COORDINATED_UNIVERSAL_TIME_OFFSET ( 5, 0, .BEHIND. ) ;
#127 = DIRECTION ( 'NONE',  ( -1.000000000000000000, 0.0000000000000000000, 0.0000000000000000000 ) ) ;
#128 = CIRCLE ( 'NONE', #125, 6.099999999999998800 ) ;
#129 = ORIENTED_EDGE ( 'NONE', *, *, #56, .F. ) ;
#130 = COORDINATED_UNIVERSAL_TIME_OFFSET ( 5, 0, .BEHIND. ) ;
#131 = PRODUCT_RELATED_PRODUCT_CATEGORY ( 'detail', '', ( #28 ) ) ;
#132 = ORIENTED_EDGE ( 'NONE', *, *, #72, .T. ) ;
#133 = DIRECTION ( 'NONE',  ( 1.000000000000000000, 0.0000000000000000000, 0.0000000000000000000 ) ) ;
#134 = DIRECTION ( 'NONE',  ( -0.0000000000000000000, -0.0000000000000000000, 1.000000000000000000 ) ) ;
#135 = DIRECTION ( 'NONE',  ( -0.0000000000000000000, -0.0000000000000000000, 1.000000000000000000 ) ) ;
#136 = DIRECTION ( 'NONE',  ( 0.0000000000000000000, 0.0000000000000000000, -1.000000000000000000 ) ) ;
#137 = EDGE_LOOP ( 'NONE', ( #132, #108 ) ) ;
#138 = APPROVAL_PERSON_ORGANIZATION ( #281, #139, #76 ) ;
#139 = APPROVAL ( #215, 'UNSPECIFIED' ) ;
#140 = FACE_OUTER_BOUND ( 'NONE', #209, .T. ) ;
#141 = VERTEX_POINT ( 'NONE', #45 ) ;
#142 = ADVANCED_FACE ( 'NONE', ( #283 ), #37, .T. ) ;
#143 = DATE_AND_TIME ( #214, #211 ) ;
#144 = SECURITY_CLASSIFICATION ( '', '', #221 ) ;
#145 = CARTESIAN_POINT ( 'NONE',  ( 0.0000000000000000000, 0.0000000000000000000, 2.101234001522094700 ) ) ;
#146 = DIRECTION ( 'NONE',  ( 1.000000000000000000, 0.0000000000000000000, 0.0000000000000000000 ) ) ;
#147 = VERTEX_POINT ( 'NONE', #102 ) ;
#148 = PERSON_AND_ORGANIZATION ( #306, #114 ) ;
#149 = CONICAL_SURFACE ( 'NONE', #200, 6.350000000000001400, 0.7853981633974482800 ) ;
#150 = LINE ( 'NONE', #317, #11 ) ;
#151 = DIRECTION ( 'NONE',  ( 1.000000000000000000, -0.0000000000000000000, 0.0000000000000000000 ) ) ;
#152 = VECTOR ( 'NONE', #134, 1000.000000000000000 ) ;
#153 = LINE ( 'NONE', #242, #284 ) ;
#154 = LOCAL_TIME ( 16, 54, 44.00000000000000000, #157 ) ;
#155 = CARTESIAN_POINT ( 'NONE',  ( 0.0000000000000000000, 0.0000000000000000000, 93.89876599847788400 ) ) ;
#156 = ORIENTED_EDGE ( 'NONE', *, *, #30, .F. ) ;
#157 = COORDINATED_UNIVERSAL_TIME_OFFSET ( 5, 0, .BEHIND. ) ;
#158 = CARTESIAN_POINT ( 'NONE',  ( 0.0000000000000000000, 0.0000000000000000000, 1.898765998477877700 ) ) ;
#159 = FACE_OUTER_BOUND ( 'NONE', #217, .T. ) ;
#160 = ORIENTED_EDGE ( 'NONE', *, *, #56, .T. ) ;
#161 = DIRECTION ( 'NONE',  ( 0.0000000000000000000, 0.0000000000000000000, -1.000000000000000000 ) ) ;
#162 = LOCAL_TIME ( 16, 54, 44.00000000000000000, #126 ) ;
#163 = DATE_TIME_ROLE ( 'classification_date' ) ;
#164 = VERTEX_POINT ( 'NONE', #319 ) ;
#165 = AXIS2_PLACEMENT_3D ( 'NONE', #298, #292, #120 ) ;
#166 = CARTESIAN_POINT ( 'NONE',  ( 0.0000000000000000000, 0.0000000000000000000, 2.101234001522094700 ) ) ;
#167 = CIRCLE ( 'NONE', #14, 6.350000000000001400 ) ;
#168 = CC_DESIGN_APPROVAL ( #139, ( #106 ) ) ;
#169 = DIRECTION ( 'NONE',  ( 1.000000000000000000, 0.0000000000000000000, 0.0000000000000000000 ) ) ;
#170 = CARTESIAN_POINT ( 'NONE',  ( 0.0000000000000000000, 0.0000000000000000000, 1.898765998477877700 ) ) ;
#171 = CARTESIAN_POINT ( 'NONE',  ( 0.0000000000000000000, 5.633375276077824700E-015, 1.898765998477880400 ) ) ;
#172 = EDGE_LOOP ( 'NONE', ( #122, #260, #99, #196 ) ) ;
#173 = CALENDAR_DATE ( 2015, 17, 6 ) ;
#174 = DIRECTION ( 'NONE',  ( -0.0000000000000000000, -0.0000000000000000000, 1.000000000000000000 ) ) ;
#175 = PERSON_AND_ORGANIZATION_ROLE ( 'classification_officer' ) ;
#176 = DATE_TIME_ROLE ( 'creation_date' ) ;
#177 = DIRECTION ( 'NONE',  ( 0.0000000000000000000, 0.0000000000000000000, -1.000000000000000000 ) ) ;
#178 = CC_DESIGN_PERSON_AND_ORGANIZATION_ASSIGNMENT ( #83, #218, ( #106 ) ) ;
#179 = ORIENTED_EDGE ( 'NONE', *, *, #71, .F. ) ;
#180 = ORIENTED_EDGE ( 'NONE', *, *, #36, .T. ) ;
#181 = ADVANCED_BREP_SHAPE_REPRESENTATION ( '4349-E0W', ( #286, #256 ), #293 ) ;
#182 = PERSON_AND_ORGANIZATION_ROLE ( 'creator' ) ;
#183 = APPLICATION_PROTOCOL_DEFINITION ( 'international standard', 'config_control_design', 1994, #282 ) ;
#184 = ORIENTED_EDGE ( 'NONE', *, *, #65, .T. ) ;
#185 = DATE_AND_TIME ( #227, #154 ) ;
#186 = CARTESIAN_POINT ( 'NONE',  ( 0.0000000000000000000, 0.0000000000000000000, 1.868171644333490400 ) ) ;
#187 = AXIS2_PLACEMENT_3D ( 'NONE', #79, #254, #32 ) ;
#188 = ORIENTED_EDGE ( 'NONE', *, *, #38, .T. ) ;
#189 = CARTESIAN_POINT ( 'NONE',  ( 0.0000000000000000000, 0.0000000000000000000, -2.101234001522122300 ) ) ;
#190 = APPROVAL ( #239, 'UNSPECIFIED' ) ;
#191 = AXIS2_PLACEMENT_3D ( 'NONE', #87, #264, #89 ) ;
#192 = CARTESIAN_POINT ( 'NONE',  ( 0.0000000000000000000, 0.0000000000000000000, -2.101234001522122300 ) ) ;
#193 = ADVANCED_FACE ( 'NONE', ( #236 ), #268, .T. ) ;
#194 = CARTESIAN_POINT ( 'NONE',  ( 0.0000000000000000000, 0.0000000000000000000, -1.851234001522119400 ) ) ;
#195 = CARTESIAN_POINT ( 'NONE',  ( 0.0000000000000000000, 6.100255672337147500, 2.101234001522129800 ) ) ;
#196 = ORIENTED_EDGE ( 'NONE', *, *, #38, .F. ) ;
#197 = PERSON_AND_ORGANIZATION ( #306, #114 ) ;
#198 = CARTESIAN_POINT ( 'NONE',  ( -7.470658583108173500E-016, -6.100255672337147500, 2.101234001522129800 ) ) ;
#199 = AXIS2_PLACEMENT_3D ( 'NONE', #110, #151, #47 ) ;
#200 = AXIS2_PLACEMENT_3D ( 'NONE', #13, #271, #207 ) ;
#201 = DIRECTION ( 'NONE',  ( 0.0000000000000000000, -0.0000000000000000000, 1.000000000000000000 ) ) ;
#202 = AXIS2_PLACEMENT_3D ( 'NONE', #145, #85, #77 ) ;
#203 = VERTEX_POINT ( 'NONE', #198 ) ;
#204 = AXIS2_PLACEMENT_3D ( 'NONE', #51, #40, #169 ) ;
#205 = FACE_OUTER_BOUND ( 'NONE', #4, .T. ) ;
#206 = CC_DESIGN_PERSON_AND_ORGANIZATION_ASSIGNMENT ( #216, #231, ( #28 ) ) ;
#207 = DIRECTION ( 'NONE',  ( 1.000000000000000000, 0.0000000000000000000, 0.0000000000000000000 ) ) ;
#208 = DIRECTION ( 'NONE',  ( 1.000000000000000000, 0.0000000000000000000, 0.0000000000000000000 ) ) ;
#209 = EDGE_LOOP ( 'NONE', ( #241, #29, #74, #115, #179 ) ) ;
#210 = AXIS2_PLACEMENT_3D ( 'NONE', #265, #201, #277 ) ;
#211 = LOCAL_TIME ( 16, 54, 44.00000000000000000, #48 ) ;
#212 =( NAMED_UNIT ( * ) SI_UNIT ( $, .STERADIAN. ) SOLID_ANGLE_UNIT ( ) );
#213 = ADVANCED_FACE ( 'NONE', ( #230 ), #66, .F. ) ;
#214 = CALENDAR_DATE ( 2015, 17, 6 ) ;
#215 = APPROVAL_STATUS ( 'not_yet_approved' ) ;
#216 = PERSON_AND_ORGANIZATION ( #306, #114 ) ;
#217 = EDGE_LOOP ( 'NONE', ( #22, #252, #188, #86 ) ) ;
#218 = PERSON_AND_ORGANIZATION_ROLE ( 'creator' ) ;
#219 = PERSON_AND_ORGANIZATION_ROLE ( 'design_supplier' ) ;
#220 = CARTESIAN_POINT ( 'NONE',  ( -6.099999999999998800, 7.623426324692274200E-016, -2.101234001522122300 ) ) ;
#221 = SECURITY_CLASSIFICATION_LEVEL ( 'unclassified' ) ;
#222 = CARTESIAN_POINT ( 'NONE',  ( 6.099999999999998800, 0.0000000000000000000, -2.101234001522122300 ) ) ;
#223 =( LENGTH_UNIT ( ) NAMED_UNIT ( * ) SI_UNIT ( .MILLI., .METRE. ) );
#224 = LINE ( 'NONE', #257, #152 ) ;
#225 = AXIS2_PLACEMENT_3D ( 'NONE', #166, #177, #39 ) ;
#226 = CC_DESIGN_SECURITY_CLASSIFICATION ( #144, ( #106 ) ) ;
#227 = CALENDAR_DATE ( 2015, 17, 6 ) ;
#228 = AXIS2_PLACEMENT_3D ( 'NONE', #25, #100, #308 ) ;
#229 = APPROVAL ( #109, 'UNSPECIFIED' ) ;
#230 = FACE_OUTER_BOUND ( 'NONE', #93, .T. ) ;
#231 = PERSON_AND_ORGANIZATION_ROLE ( 'design_owner' ) ;
#232 = LINE ( 'NONE', #121, #275 ) ;
#233 = APPROVAL_DATE_TIME ( #112, #229 ) ;
#234 = CC_DESIGN_PERSON_AND_ORGANIZATION_ASSIGNMENT ( #148, #219, ( #106 ) ) ;
#235 = ADVANCED_FACE ( 'NONE', ( #159 ), #149, .T. ) ;
#236 = FACE_OUTER_BOUND ( 'NONE', #41, .T. ) ;
#237 = AXIS2_PLACEMENT_3D ( 'NONE', #194, #18, #133 ) ;
#238 = ORIENTED_EDGE ( 'NONE', *, *, #50, .F. ) ;
#239 = APPROVAL_STATUS ( 'not_yet_approved' ) ;
#240 = DIRECTION ( 'NONE',  ( -0.0000000000000000000, -0.0000000000000000000, 1.000000000000000000 ) ) ;
#241 = ORIENTED_EDGE ( 'NONE', *, *, #26, .F. ) ;
#242 = CARTESIAN_POINT ( 'NONE',  ( -6.350000000000001400, 7.776507174585694100E-016, -1.851234001522119400 ) ) ;
#243 = LOCAL_TIME ( 16, 54, 44.00000000000000000, #267 ) ;
#244 = AXIS2_PLACEMENT_3D ( 'NONE', #170, #135, #208 ) ;
#245 = DIRECTION ( 'NONE',  ( -0.0000000000000000000, -0.0000000000000000000, 1.000000000000000000 ) ) ;
#246 = ORIENTED_EDGE ( 'NONE', *, *, #123, .T. ) ;
#247 = DIRECTION ( 'NONE',  ( 0.7071067811865474600, 0.0000000000000000000, 0.7071067811865474600 ) ) ;
#248 = CIRCLE ( 'NONE', #187, 6.100255672336865900 ) ;
#249 = APPROVAL_DATE_TIME ( #302, #190 ) ;
#250 = CIRCLE ( 'NONE', #276, 6.099999999999998800 ) ;
#251 = VERTEX_POINT ( 'NONE', #315 ) ;
#252 = ORIENTED_EDGE ( 'NONE', *, *, #72, .F. ) ;
#253 = DESIGN_CONTEXT ( 'detailed design', #9, 'design' ) ;
#254 = DIRECTION ( 'NONE',  ( -0.0000000000000000000, -0.0000000000000000000, 1.000000000000000000 ) ) ;
#255 = CIRCLE ( 'NONE', #237, 6.350000000000001400 ) ;
#256 = AXIS2_PLACEMENT_3D ( 'NONE', #312, #263, #146 ) ;
#257 = CARTESIAN_POINT ( 'NONE',  ( -6.350000000000001400, 7.776507174585694100E-016, 1.898765998477877700 ) ) ;
#258 = CARTESIAN_POINT ( 'NONE',  ( 0.0000000000000000000, 0.0000000000000000000, 93.89876599847788400 ) ) ;
#259 = ORIENTED_EDGE ( 'NONE', *, *, #75, .T. ) ;
#260 = ORIENTED_EDGE ( 'NONE', *, *, #43, .T. ) ;
#261 = CC_DESIGN_DATE_AND_TIME_ASSIGNMENT ( #94, #176, ( #95 ) ) ;
#262 = CALENDAR_DATE ( 2015, 17, 6 ) ;
#263 = DIRECTION ( 'NONE',  ( 0.0000000000000000000, 0.0000000000000000000, 1.000000000000000000 ) ) ;
#264 = DIRECTION ( 'NONE',  ( -1.000000000000000000, 1.224646799147353200E-016, 0.0000000000000000000 ) ) ;
#265 = CARTESIAN_POINT ( 'NONE',  ( 0.0000000000000000000, 0.0000000000000000000, -2.101234001522122300 ) ) ;
#266 = ORIENTED_EDGE ( 'NONE', *, *, #57, .T. ) ;
#267 = COORDINATED_UNIVERSAL_TIME_OFFSET ( 5, 0, .BEHIND. ) ;
#268 = CYLINDRICAL_SURFACE ( 'NONE', #244, 6.350000000000001400 ) ;
#269 = AXIS2_PLACEMENT_3D ( 'NONE', #92, #67, #91 ) ;
#270 = ORIENTED_EDGE ( 'NONE', *, *, #26, .T. ) ;
#271 = DIRECTION ( 'NONE',  ( -0.0000000000000000000, -0.0000000000000000000, 1.000000000000000000 ) ) ;
#272 = DIRECTION ( 'NONE',  ( 1.000000000000000000, 0.0000000000000000000, 0.0000000000000000000 ) ) ;
#273 = CIRCLE ( 'NONE', #320, 6.100255672336865900 ) ;
#274 = CONICAL_SURFACE ( 'NONE', #202, 6.100255672336873000, 0.8199364935065428500 ) ;
#275 = VECTOR ( 'NONE', #174, 1000.000000000000000 ) ;
#276 = AXIS2_PLACEMENT_3D ( 'NONE', #189, #161, #8 ) ;
#277 = DIRECTION ( 'NONE',  ( 1.000000000000000000, 0.0000000000000000000, 0.0000000000000000000 ) ) ;
#278 = FACE_OUTER_BOUND ( 'NONE', #137, .T. ) ;
#279 = LINE ( 'NONE', #61, #290 ) ;
#280 = CIRCLE ( 'NONE', #191, 92.00000000000000000 ) ;
#281 = PERSON_AND_ORGANIZATION ( #306, #114 ) ;
#282 = APPLICATION_CONTEXT ( 'configuration controlled 3d designs of mechanical parts and assemblies' ) ;
#283 = FACE_OUTER_BOUND ( 'NONE', #172, .T. ) ;
#284 = VECTOR ( 'NONE', #44, 1000.000000000000100 ) ;
#285 = CIRCLE ( 'NONE', #228, 6.350000000000001400 ) ;
#286 = MANIFOLD_SOLID_BREP ( '4349-001-1-solid1', #78 ) ;
#287 = ADVANCED_FACE ( 'NONE', ( #205 ), #84, .T. ) ;
#288 = CC_DESIGN_DATE_AND_TIME_ASSIGNMENT ( #185, #163, ( #144 ) ) ;
#289 = CIRCLE ( 'NONE', #165, 6.100255672336865900 ) ;
#290 = VECTOR ( 'NONE', #24, 1000.000000000000000 ) ;
#291 = LOCAL_TIME ( 16, 54, 44.00000000000000000, #130 ) ;
#292 = DIRECTION ( 'NONE',  ( -0.0000000000000000000, -0.0000000000000000000, 1.000000000000000000 ) ) ;
#293 =( GEOMETRIC_REPRESENTATION_CONTEXT ( 3 ) GLOBAL_UNCERTAINTY_ASSIGNED_CONTEXT ( ( #297 ) ) GLOBAL_UNIT_ASSIGNED_CONTEXT ( ( #223, #31, #212 ) ) REPRESENTATION_CONTEXT ( 'NONE', 'WORKASPACE' ) );
#294 = CARTESIAN_POINT ( 'NONE',  ( 6.350000000000001400, 0.0000000000000000000, -1.851234001522119400 ) ) ;
#295 = FACE_OUTER_BOUND ( 'NONE', #98, .T. ) ;
#296 = ORIENTED_EDGE ( 'NONE', *, *, #42, .T. ) ;
#297 = UNCERTAINTY_MEASURE_WITH_UNIT (LENGTH_MEASURE( 1.000000000000000100E-005 ), #223, 'distance_accuracy_value', 'NONE');
#298 = CARTESIAN_POINT ( 'NONE',  ( 0.0000000000000000000, 0.0000000000000000000, 2.101234001522122300 ) ) ;
#299 = LINE ( 'NONE', #49, #5 ) ;
#300 = VERTEX_POINT ( 'NONE', #220 ) ;
#301 = VERTEX_POINT ( 'NONE', #316 ) ;
#302 = DATE_AND_TIME ( #173, #291 ) ;
#303 = PRODUCT_DEFINITION_SHAPE ( 'NONE', 'NONE',  #95 ) ;
#304 = ORIENTED_EDGE ( 'NONE', *, *, #23, .F. ) ;
#305 = CC_DESIGN_APPROVAL ( #229, ( #144 ) ) ;
#306 = PERSON ( 'UNSPECIFIED', 'UNSPECIFIED', 'UNSPECIFIED', ('UNSPECIFIED'), ('UNSPECIFIED'), ('UNSPECIFIED') ) ;
#307 = ADVANCED_FACE ( 'NONE', ( #278 ), #15, .F. ) ;
#308 = DIRECTION ( 'NONE',  ( -1.000000000000000000, 0.0000000000000000000, 0.0000000000000000000 ) ) ;
#309 = CARTESIAN_POINT ( 'NONE',  ( 0.0000000000000000000, 0.0000000000000000000, 2.101234001522122300 ) ) ;
#310 = EDGE_LOOP ( 'NONE', ( #129, #104, #246, #19 ) ) ;
#311 = AXIS2_PLACEMENT_3D ( 'NONE', #158, #113, #272 ) ;
#312 = CARTESIAN_POINT ( 'NONE',  ( 0.0000000000000000000, 0.0000000000000000000, 0.0000000000000000000 ) ) ;
#313 = DIRECTION ( 'NONE',  ( 1.000000000000000000, 0.0000000000000000000, 0.0000000000000000000 ) ) ;
#314 = PERSON_AND_ORGANIZATION ( #306, #114 ) ;
#315 = CARTESIAN_POINT ( 'NONE',  ( -6.350000000000001400, 7.776507174585694100E-016, -1.851234001522119400 ) ) ;
#316 = CARTESIAN_POINT ( 'NONE',  ( -6.100255672336865900, 0.0000000000000000000, 2.101234001522122300 ) ) ;
#317 = CARTESIAN_POINT ( 'NONE',  ( 6.100255672336873000, 7.470658583107835300E-016, 2.101234001522094700 ) ) ;
#318 = ORIENTED_EDGE ( 'NONE', *, *, #75, .F. ) ;
#319 = CARTESIAN_POINT ( 'NONE',  ( 6.350000000000001400, 0.0000000000000000000, 1.868171644333490400 ) ) ;
#320 = AXIS2_PLACEMENT_3D ( 'NONE', #309, #245, #313 ) ;
#321 = DIRECTION ( 'NONE',  ( 0.0000000000000000000, 1.000000000000000000, 0.0000000000000000000 ) ) ;
ENDSEC;
END-ISO-10303-21;
