ISO-10303-21;
HEADER;
FILE_DESCRIPTION (( 'STEP AP203' ),
    '1' );
FILE_NAME ('Web Model 49621.STEP',
    '2017-01-31T15:23:02',
    ( '' ),
    ( '' ),
    'SwSTEP 2.0',
    'SolidWorks 2016',
    '' );
FILE_SCHEMA (( 'CONFIG_CONTROL_DESIGN' ));
ENDSEC;

DATA;
#1 = EDGE_LOOP ( 'NONE', ( #104, #57, #132, #110 ) ) ;
#2 = VECTOR ( 'NONE', #18, 1000.000000000000000 ) ;
#3 = EDGE_CURVE ( 'NONE', #153, #89, #116, .T. ) ;
#4 = APPROVAL_DATE_TIME ( #9, #182 ) ;
#5 = CALENDAR_DATE ( 2017, 31, 1 ) ;
#6 = ORIENTED_EDGE ( 'NONE', *, *, #80, .T. ) ;
#7 = CARTESIAN_POINT ( 'NONE',  ( 0.0000000000000000000, 0.0000000000000000000, 0.0000000000000000000 ) ) ;
#8 = DATE_AND_TIME ( #24, #213 ) ;
#9 = DATE_AND_TIME ( #14, #66 ) ;
#10 = ORIENTED_EDGE ( 'NONE', *, *, #80, .F. ) ;
#11 = DIRECTION ( 'NONE',  ( 0.0000000000000000000, -0.0000000000000000000, -1.000000000000000000 ) ) ;
#12 = CARTESIAN_POINT ( 'NONE',  ( -6.250000000000000000, 6.250000000000000000, 0.0000000000000000000 ) ) ;
#13 = DIRECTION ( 'NONE',  ( 1.000000000000000000, 0.0000000000000000000, 0.0000000000000000000 ) ) ;
#14 = CALENDAR_DATE ( 2017, 31, 1 ) ;
#15 = ADVANCED_FACE ( 'NONE', ( #33 ), #178, .F. ) ;
#16 = ADVANCED_BREP_SHAPE_REPRESENTATION ( 'Web Model 49621', ( #95, #203 ), #101 ) ;
#17 = LINE ( 'NONE', #160, #218 ) ;
#18 = DIRECTION ( 'NONE',  ( -1.000000000000000000, -0.0000000000000000000, -0.0000000000000000000 ) ) ;
#19 = CARTESIAN_POINT ( 'NONE',  ( -6.250000000000000000, 6.250000000000000000, 3.000000000000000000 ) ) ;
#20 = FACE_OUTER_BOUND ( 'NONE', #190, .T. ) ;
#21 = ORGANIZATION ( 'UNSPECIFIED', 'UNSPECIFIED', '' ) ;
#22 = APPLICATION_PROTOCOL_DEFINITION ( 'international standard', 'config_control_design', 1994, #23 ) ;
#23 = APPLICATION_CONTEXT ( 'configuration controlled 3d designs of mechanical parts and assemblies' ) ;
#24 = CALENDAR_DATE ( 2017, 31, 1 ) ;
#25 = LINE ( 'NONE', #142, #2 ) ;
#26 = PLANE ( 'NONE',  #78 ) ;
#27 = PERSON_AND_ORGANIZATION ( #58, #21 ) ;
#28 = LINE ( 'NONE', #231, #168 ) ;
#29 = VECTOR ( 'NONE', #122, 1000.000000000000000 ) ;
#30 = PRODUCT_RELATED_PRODUCT_CATEGORY ( 'detail', '', ( #191 ) ) ;
#31 = FACE_OUTER_BOUND ( 'NONE', #134, .T. ) ;
#32 = AXIS2_PLACEMENT_3D ( 'NONE', #96, #215, #109 ) ;
#33 = FACE_OUTER_BOUND ( 'NONE', #225, .T. ) ;
#34 = DIRECTION ( 'NONE',  ( 0.0000000000000000000, -0.0000000000000000000, 1.000000000000000000 ) ) ;
#35 =( NAMED_UNIT ( * ) SI_UNIT ( $, .STERADIAN. ) SOLID_ANGLE_UNIT ( ) );
#36 = LINE ( 'NONE', #72, #175 ) ;
#37 = LOCAL_TIME ( 10, 23, 2.000000000000000000, #56 ) ;
#38 = EDGE_CURVE ( 'NONE', #121, #180, #17, .T. ) ;
#39 = APPROVAL_PERSON_ORGANIZATION ( #202, #68, #64 ) ;
#40 = ORIENTED_EDGE ( 'NONE', *, *, #3, .T. ) ;
#41 = APPLICATION_PROTOCOL_DEFINITION ( 'international standard', 'config_control_design', 1994, #193 ) ;
#42 = AXIS2_PLACEMENT_3D ( 'NONE', #220, #236, #13 ) ;
#43 = ORIENTED_EDGE ( 'NONE', *, *, #169, .T. ) ;
#44 = COORDINATED_UNIVERSAL_TIME_OFFSET ( 5, 0, .BEHIND. ) ;
#45 = ORIENTED_EDGE ( 'NONE', *, *, #155, .T. ) ;
#46 = DIRECTION ( 'NONE',  ( 0.0000000000000000000, 1.000000000000000000, 0.0000000000000000000 ) ) ;
#47 = PLANE ( 'NONE',  #71 ) ;
#48 = PERSON_AND_ORGANIZATION ( #58, #21 ) ;
#49 = CARTESIAN_POINT ( 'NONE',  ( 6.250000000000000000, 6.250000000000000000, 3.000000000000000000 ) ) ;
#50 = ORIENTED_EDGE ( 'NONE', *, *, #74, .T. ) ;
#51 = FACE_OUTER_BOUND ( 'NONE', #1, .T. ) ;
#52 = CARTESIAN_POINT ( 'NONE',  ( -6.250000000000000000, -6.250000000000000000, 0.0000000000000000000 ) ) ;
#53 = DIRECTION ( 'NONE',  ( 1.000000000000000000, 0.0000000000000000000, 0.0000000000000000000 ) ) ;
#54 = EDGE_CURVE ( 'NONE', #159, #207, #28, .T. ) ;
#55 = AXIS2_PLACEMENT_3D ( 'NONE', #137, #157, #179 ) ;
#56 = COORDINATED_UNIVERSAL_TIME_OFFSET ( 5, 0, .BEHIND. ) ;
#57 = ORIENTED_EDGE ( 'NONE', *, *, #169, .F. ) ;
#58 = PERSON ( 'UNSPECIFIED', 'UNSPECIFIED', 'UNSPECIFIED', ('UNSPECIFIED'), ('UNSPECIFIED'), ('UNSPECIFIED') ) ;
#59 = CALENDAR_DATE ( 2017, 31, 1 ) ;
#60 = DIRECTION ( 'NONE',  ( 0.0000000000000000000, 0.0000000000000000000, 1.000000000000000000 ) ) ;
#61 = SECURITY_CLASSIFICATION_LEVEL ( 'unclassified' ) ;
#62 = ORIENTED_EDGE ( 'NONE', *, *, #167, .T. ) ;
#63 = LINE ( 'NONE', #211, #219 ) ;
#64 = APPROVAL_ROLE ( '' ) ;
#65 = AXIS2_PLACEMENT_3D ( 'NONE', #107, #46, #34 ) ;
#66 = LOCAL_TIME ( 10, 23, 2.000000000000000000, #115 ) ;
#67 = ORIENTED_EDGE ( 'NONE', *, *, #235, .F. ) ;
#68 = APPROVAL ( #173, 'UNSPECIFIED' ) ;
#69 = VECTOR ( 'NONE', #164, 1000.000000000000000 ) ;
#70 = CARTESIAN_POINT ( 'NONE',  ( 6.250000000000000000, 6.250000000000000000, 3.000000000000000000 ) ) ;
#71 = AXIS2_PLACEMENT_3D ( 'NONE', #198, #229, #141 ) ;
#72 = CARTESIAN_POINT ( 'NONE',  ( -6.250000000000000000, -6.250000000000000000, 3.000000000000000000 ) ) ;
#73 = LINE ( 'NONE', #91, #114 ) ;
#74 = EDGE_CURVE ( 'NONE', #89, #207, #176, .T. ) ;
#75 = PERSON_AND_ORGANIZATION ( #58, #21 ) ;
#76 = ORIENTED_EDGE ( 'NONE', *, *, #74, .F. ) ;
#77 = LINE ( 'NONE', #52, #93 ) ;
#78 = AXIS2_PLACEMENT_3D ( 'NONE', #130, #123, #11 ) ;
#79 = APPROVAL_DATE_TIME ( #112, #118 ) ;
#80 = EDGE_CURVE ( 'NONE', #207, #121, #210, .T. ) ;
#81 = DATE_TIME_ROLE ( 'creation_date' ) ;
#82 = SECURITY_CLASSIFICATION ( '', '', #61 ) ;
#83 = ORIENTED_EDGE ( 'NONE', *, *, #3, .F. ) ;
#84 = PERSON_AND_ORGANIZATION_ROLE ( 'design_owner' ) ;
#85 = VECTOR ( 'NONE', #97, 1000.000000000000000 ) ;
#86 = APPROVAL_STATUS ( 'not_yet_approved' ) ;
#87 = CC_DESIGN_DATE_AND_TIME_ASSIGNMENT ( #8, #81, ( #166 ) ) ;
#88 = DESIGN_CONTEXT ( 'detailed design', #23, 'design' ) ;
#89 = VERTEX_POINT ( 'NONE', #139 ) ;
#90 = CARTESIAN_POINT ( 'NONE',  ( -6.250000000000000000, -6.250000000000000000, 0.0000000000000000000 ) ) ;
#91 = CARTESIAN_POINT ( 'NONE',  ( 6.250000000000000000, -6.250000000000000000, 3.000000000000000000 ) ) ;
#92 = ORIENTED_EDGE ( 'NONE', *, *, #38, .F. ) ;
#93 = VECTOR ( 'NONE', #138, 1000.000000000000000 ) ;
#94 = DIRECTION ( 'NONE',  ( 0.0000000000000000000, -1.000000000000000000, 0.0000000000000000000 ) ) ;
#95 = MANIFOLD_SOLID_BREP ( 'Extrude1', #200 ) ;
#96 = CARTESIAN_POINT ( 'NONE',  ( -6.250000000000000000, 6.250000000000000000, 3.000000000000000000 ) ) ;
#97 = DIRECTION ( 'NONE',  ( -1.000000000000000000, -0.0000000000000000000, -0.0000000000000000000 ) ) ;
#98 = CC_DESIGN_PERSON_AND_ORGANIZATION_ASSIGNMENT ( #206, #208, ( #166 ) ) ;
#99 = ADVANCED_FACE ( 'NONE', ( #31 ), #47, .F. ) ;
#100 = EDGE_CURVE ( 'NONE', #153, #159, #73, .T. ) ;
#101 =( GEOMETRIC_REPRESENTATION_CONTEXT ( 3 ) GLOBAL_UNCERTAINTY_ASSIGNED_CONTEXT ( ( #204 ) ) GLOBAL_UNIT_ASSIGNED_CONTEXT ( ( #194, #152, #35 ) ) REPRESENTATION_CONTEXT ( 'NONE', 'WORKASPACE' ) );
#102 = LINE ( 'NONE', #158, #29 ) ;
#103 = EDGE_CURVE ( 'NONE', #180, #159, #77, .T. ) ;
#104 = ORIENTED_EDGE ( 'NONE', *, *, #38, .T. ) ;
#105 = MECHANICAL_CONTEXT ( 'NONE', #193, 'mechanical' ) ;
#106 = PERSON_AND_ORGANIZATION ( #58, #21 ) ;
#107 = CARTESIAN_POINT ( 'NONE',  ( -6.250000000000000000, -6.250000000000000000, 3.000000000000000000 ) ) ;
#108 = CC_DESIGN_PERSON_AND_ORGANIZATION_ASSIGNMENT ( #48, #84, ( #191 ) ) ;
#109 = DIRECTION ( 'NONE',  ( -0.0000000000000000000, 0.0000000000000000000, -1.000000000000000000 ) ) ;
#110 = ORIENTED_EDGE ( 'NONE', *, *, #235, .T. ) ;
#111 = CARTESIAN_POINT ( 'NONE',  ( -6.250000000000000000, 6.250000000000000000, 3.000000000000000000 ) ) ;
#112 = DATE_AND_TIME ( #156, #171 ) ;
#113 = ORIENTED_EDGE ( 'NONE', *, *, #100, .F. ) ;
#114 = VECTOR ( 'NONE', #212, 1000.000000000000000 ) ;
#115 = COORDINATED_UNIVERSAL_TIME_OFFSET ( 5, 0, .BEHIND. ) ;
#116 = LINE ( 'NONE', #49, #222 ) ;
#117 = APPROVAL_ROLE ( '' ) ;
#118 = APPROVAL ( #86, 'UNSPECIFIED' ) ;
#119 = DIRECTION ( 'NONE',  ( -0.0000000000000000000, -0.0000000000000000000, -1.000000000000000000 ) ) ;
#120 = CARTESIAN_POINT ( 'NONE',  ( -6.250000000000000000, -6.250000000000000000, 3.000000000000000000 ) ) ;
#121 = VERTEX_POINT ( 'NONE', #12 ) ;
#122 = DIRECTION ( 'NONE',  ( 0.0000000000000000000, -1.000000000000000000, 0.0000000000000000000 ) ) ;
#123 = DIRECTION ( 'NONE',  ( 0.0000000000000000000, -1.000000000000000000, 0.0000000000000000000 ) ) ;
#124 = DIRECTION ( 'NONE',  ( -0.0000000000000000000, 1.000000000000000000, -0.0000000000000000000 ) ) ;
#125 = DATE_AND_TIME ( #59, #163 ) ;
#126 = VECTOR ( 'NONE', #119, 1000.000000000000000 ) ;
#127 = PERSON_AND_ORGANIZATION ( #58, #21 ) ;
#128 = ORIENTED_EDGE ( 'NONE', *, *, #155, .F. ) ;
#129 = CC_DESIGN_APPROVAL ( #68, ( #166 ) ) ;
#130 = CARTESIAN_POINT ( 'NONE',  ( -6.250000000000000000, 6.250000000000000000, 3.000000000000000000 ) ) ;
#131 = ORIENTED_EDGE ( 'NONE', *, *, #54, .T. ) ;
#132 = ORIENTED_EDGE ( 'NONE', *, *, #147, .F. ) ;
#133 = PERSON_AND_ORGANIZATION_ROLE ( 'design_supplier' ) ;
#134 = EDGE_LOOP ( 'NONE', ( #92, #10, #165, #189 ) ) ;
#135 = PRODUCT_DEFINITION_FORMATION_WITH_SPECIFIED_SOURCE ( 'ANY', '', #191, .NOT_KNOWN. ) ;
#136 = PRODUCT_DEFINITION_SHAPE ( 'NONE', 'NONE',  #166 ) ;
#137 = CARTESIAN_POINT ( 'NONE',  ( 6.250000000000000000, 6.250000000000000000, 3.000000000000000000 ) ) ;
#138 = DIRECTION ( 'NONE',  ( 1.000000000000000000, 0.0000000000000000000, 0.0000000000000000000 ) ) ;
#139 = CARTESIAN_POINT ( 'NONE',  ( 6.250000000000000000, 6.250000000000000000, 3.000000000000000000 ) ) ;
#140 = CC_DESIGN_DATE_AND_TIME_ASSIGNMENT ( #125, #226, ( #82 ) ) ;
#141 = DIRECTION ( 'NONE',  ( 1.000000000000000000, 0.0000000000000000000, 0.0000000000000000000 ) ) ;
#142 = CARTESIAN_POINT ( 'NONE',  ( -6.250000000000000000, 6.250000000000000000, 3.000000000000000000 ) ) ;
#143 = ADVANCED_FACE ( 'NONE', ( #51 ), #199, .F. ) ;
#144 = ORIENTED_EDGE ( 'NONE', *, *, #167, .F. ) ;
#145 = COORDINATED_UNIVERSAL_TIME_OFFSET ( 5, 0, .BEHIND. ) ;
#146 = CC_DESIGN_APPROVAL ( #118, ( #135 ) ) ;
#147 = EDGE_CURVE ( 'NONE', #237, #174, #102, .T. ) ;
#148 = SHAPE_DEFINITION_REPRESENTATION ( #136, #16 ) ;
#149 = APPROVAL_DATE_TIME ( #196, #68 ) ;
#150 = ORIENTED_EDGE ( 'NONE', *, *, #100, .T. ) ;
#151 = APPROVAL_ROLE ( '' ) ;
#152 =( NAMED_UNIT ( * ) PLANE_ANGLE_UNIT ( ) SI_UNIT ( $, .RADIAN. ) );
#153 = VERTEX_POINT ( 'NONE', #217 ) ;
#154 = DIRECTION ( 'NONE',  ( 1.000000000000000000, 0.0000000000000000000, 0.0000000000000000000 ) ) ;
#155 = EDGE_CURVE ( 'NONE', #89, #237, #25, .T. ) ;
#156 = CALENDAR_DATE ( 2017, 31, 1 ) ;
#157 = DIRECTION ( 'NONE',  ( -1.000000000000000000, 0.0000000000000000000, 0.0000000000000000000 ) ) ;
#158 = CARTESIAN_POINT ( 'NONE',  ( -6.250000000000000000, 6.250000000000000000, 3.000000000000000000 ) ) ;
#159 = VERTEX_POINT ( 'NONE', #234 ) ;
#160 = CARTESIAN_POINT ( 'NONE',  ( -6.250000000000000000, 6.250000000000000000, 0.0000000000000000000 ) ) ;
#161 = ADVANCED_FACE ( 'NONE', ( #20 ), #26, .F. ) ;
#162 = ORIENTED_EDGE ( 'NONE', *, *, #103, .T. ) ;
#163 = LOCAL_TIME ( 10, 23, 2.000000000000000000, #145 ) ;
#164 = DIRECTION ( 'NONE',  ( -0.0000000000000000000, -0.0000000000000000000, -1.000000000000000000 ) ) ;
#165 = ORIENTED_EDGE ( 'NONE', *, *, #54, .F. ) ;
#166 = PRODUCT_DEFINITION ( 'UNKNOWN', '', #135, #88 ) ;
#167 = EDGE_CURVE ( 'NONE', #174, #153, #63, .T. ) ;
#168 = VECTOR ( 'NONE', #124, 1000.000000000000000 ) ;
#169 = EDGE_CURVE ( 'NONE', #174, #180, #36, .T. ) ;
#170 = APPROVAL_STATUS ( 'not_yet_approved' ) ;
#171 = LOCAL_TIME ( 10, 23, 2.000000000000000000, #205 ) ;
#172 = APPROVAL_PERSON_ORGANIZATION ( #127, #118, #151 ) ;
#173 = APPROVAL_STATUS ( 'not_yet_approved' ) ;
#174 = VERTEX_POINT ( 'NONE', #120 ) ;
#175 = VECTOR ( 'NONE', #230, 1000.000000000000000 ) ;
#176 = LINE ( 'NONE', #70, #126 ) ;
#177 = CC_DESIGN_PERSON_AND_ORGANIZATION_ASSIGNMENT ( #106, #192, ( #135 ) ) ;
#178 = PLANE ( 'NONE',  #65 ) ;
#179 = DIRECTION ( 'NONE',  ( 0.0000000000000000000, 0.0000000000000000000, 1.000000000000000000 ) ) ;
#180 = VERTEX_POINT ( 'NONE', #90 ) ;
#181 = FACE_OUTER_BOUND ( 'NONE', #221, .T. ) ;
#182 = APPROVAL ( #170, 'UNSPECIFIED' ) ;
#183 = ADVANCED_FACE ( 'NONE', ( #181 ), #185, .F. ) ;
#184 = EDGE_LOOP ( 'NONE', ( #197, #62, #40, #45 ) ) ;
#185 = PLANE ( 'NONE',  #55 ) ;
#186 = ADVANCED_FACE ( 'NONE', ( #233 ), #232, .T. ) ;
#187 = CC_DESIGN_PERSON_AND_ORGANIZATION_ASSIGNMENT ( #201, #224, ( #82 ) ) ;
#188 = CARTESIAN_POINT ( 'NONE',  ( 6.250000000000000000, 6.250000000000000000, 0.0000000000000000000 ) ) ;
#189 = ORIENTED_EDGE ( 'NONE', *, *, #103, .F. ) ;
#190 = EDGE_LOOP ( 'NONE', ( #6, #67, #128, #50 ) ) ;
#191 = PRODUCT ( 'Web Model 49621', 'Web Model 49621', '', ( #105 ) ) ;
#192 = PERSON_AND_ORGANIZATION_ROLE ( 'creator' ) ;
#193 = APPLICATION_CONTEXT ( 'configuration controlled 3d designs of mechanical parts and assemblies' ) ;
#194 =( LENGTH_UNIT ( ) NAMED_UNIT ( * ) SI_UNIT ( .MILLI., .METRE. ) );
#195 = CC_DESIGN_APPROVAL ( #182, ( #82 ) ) ;
#196 = DATE_AND_TIME ( #5, #37 ) ;
#197 = ORIENTED_EDGE ( 'NONE', *, *, #147, .T. ) ;
#198 = CARTESIAN_POINT ( 'NONE',  ( -6.250000000000000000, -6.250000000000000000, 0.0000000000000000000 ) ) ;
#199 = PLANE ( 'NONE',  #32 ) ;
#200 = CLOSED_SHELL ( 'NONE', ( #143, #15, #183, #161, #186, #99 ) ) ;
#201 = PERSON_AND_ORGANIZATION ( #58, #21 ) ;
#202 = PERSON_AND_ORGANIZATION ( #58, #21 ) ;
#203 = AXIS2_PLACEMENT_3D ( 'NONE', #7, #60, #154 ) ;
#204 = UNCERTAINTY_MEASURE_WITH_UNIT (LENGTH_MEASURE( 1.000000000000000100E-005 ), #194, 'distance_accuracy_value', 'NONE');
#205 = COORDINATED_UNIVERSAL_TIME_OFFSET ( 5, 0, .BEHIND. ) ;
#206 = PERSON_AND_ORGANIZATION ( #58, #21 ) ;
#207 = VERTEX_POINT ( 'NONE', #188 ) ;
#208 = PERSON_AND_ORGANIZATION_ROLE ( 'creator' ) ;
#209 = APPROVAL_PERSON_ORGANIZATION ( #27, #182, #117 ) ;
#210 = LINE ( 'NONE', #214, #85 ) ;
#211 = CARTESIAN_POINT ( 'NONE',  ( -6.250000000000000000, -6.250000000000000000, 3.000000000000000000 ) ) ;
#212 = DIRECTION ( 'NONE',  ( -0.0000000000000000000, -0.0000000000000000000, -1.000000000000000000 ) ) ;
#213 = LOCAL_TIME ( 10, 23, 2.000000000000000000, #44 ) ;
#214 = CARTESIAN_POINT ( 'NONE',  ( -6.250000000000000000, 6.250000000000000000, 0.0000000000000000000 ) ) ;
#215 = DIRECTION ( 'NONE',  ( 1.000000000000000000, 0.0000000000000000000, -0.0000000000000000000 ) ) ;
#216 = CC_DESIGN_SECURITY_CLASSIFICATION ( #82, ( #135 ) ) ;
#217 = CARTESIAN_POINT ( 'NONE',  ( 6.250000000000000000, -6.250000000000000000, 3.000000000000000000 ) ) ;
#218 = VECTOR ( 'NONE', #94, 1000.000000000000000 ) ;
#219 = VECTOR ( 'NONE', #53, 1000.000000000000000 ) ;
#220 = CARTESIAN_POINT ( 'NONE',  ( -6.250000000000000000, -6.250000000000000000, 3.000000000000000000 ) ) ;
#221 = EDGE_LOOP ( 'NONE', ( #131, #76, #83, #150 ) ) ;
#222 = VECTOR ( 'NONE', #228, 1000.000000000000000 ) ;
#223 = CC_DESIGN_PERSON_AND_ORGANIZATION_ASSIGNMENT ( #75, #133, ( #135 ) ) ;
#224 = PERSON_AND_ORGANIZATION_ROLE ( 'classification_officer' ) ;
#225 = EDGE_LOOP ( 'NONE', ( #162, #113, #144, #43 ) ) ;
#226 = DATE_TIME_ROLE ( 'classification_date' ) ;
#227 = LINE ( 'NONE', #19, #69 ) ;
#228 = DIRECTION ( 'NONE',  ( -0.0000000000000000000, 1.000000000000000000, -0.0000000000000000000 ) ) ;
#229 = DIRECTION ( 'NONE',  ( -0.0000000000000000000, 0.0000000000000000000, 1.000000000000000000 ) ) ;
#230 = DIRECTION ( 'NONE',  ( -0.0000000000000000000, -0.0000000000000000000, -1.000000000000000000 ) ) ;
#231 = CARTESIAN_POINT ( 'NONE',  ( 6.250000000000000000, 6.250000000000000000, 0.0000000000000000000 ) ) ;
#232 = PLANE ( 'NONE',  #42 ) ;
#233 = FACE_OUTER_BOUND ( 'NONE', #184, .T. ) ;
#234 = CARTESIAN_POINT ( 'NONE',  ( 6.250000000000000000, -6.250000000000000000, 0.0000000000000000000 ) ) ;
#235 = EDGE_CURVE ( 'NONE', #237, #121, #227, .T. ) ;
#236 = DIRECTION ( 'NONE',  ( -0.0000000000000000000, 0.0000000000000000000, 1.000000000000000000 ) ) ;
#237 = VERTEX_POINT ( 'NONE', #111 ) ;
ENDSEC;
END-ISO-10303-21;
