ISO-10303-21;
HEADER;
FILE_DESCRIPTION (( 'STEP AP203' ),
    '1' );
FILE_NAME ('Web Model 43214_43226.step',
    '2018-03-12T19:15:36',
    ( '' ),
    ( '' ),
    'SwSTEP 2.0',
    'SolidWorks 2016',
    '' );
FILE_SCHEMA (( 'CONFIG_CONTROL_DESIGN' ));
ENDSEC;

DATA;
#1 = CC_DESIGN_DATE_AND_TIME_ASSIGNMENT ( #22, #63, ( #200 ) ) ;
#2 = LINE ( 'NONE', #134, #48 ) ;
#3 = FACE_OUTER_BOUND ( 'NONE', #216, .T. ) ;
#4 = ORIENTED_EDGE ( 'NONE', *, *, #19, .T. ) ;
#5 = CALENDAR_DATE ( 2018, 12, 3 ) ;
#6 = CARTESIAN_POINT ( 'NONE',  ( -4.750000000000000000, 24.99999999999997900, 25.00000000000000000 ) ) ;
#7 = PLANE ( 'NONE',  #59 ) ;
#8 = DIRECTION ( 'NONE',  ( 0.0000000000000000000, 0.0000000000000000000, -1.000000000000000000 ) ) ;
#9 = EDGE_CURVE ( 'NONE', #186, #127, #205, .T. ) ;
#10 = APPLICATION_CONTEXT ( 'configuration controlled 3d designs of mechanical parts and assemblies' ) ;
#11 = VECTOR ( 'NONE', #194, 1000.000000000000000 ) ;
#12 = DIRECTION ( 'NONE',  ( -0.0000000000000000000, 1.000000000000000000, -0.0000000000000000000 ) ) ;
#13 = DATE_AND_TIME ( #170, #72 ) ;
#14 = APPROVAL_STATUS ( 'not_yet_approved' ) ;
#15 = CARTESIAN_POINT ( 'NONE',  ( -4.750000000000000000, 24.99999999999998900, -25.00000000000000000 ) ) ;
#16 = EDGE_LOOP ( 'NONE', ( #75, #149, #208, #152 ) ) ;
#17 = EDGE_CURVE ( 'NONE', #192, #73, #109, .T. ) ;
#18 = ADVANCED_FACE ( 'NONE', ( #220 ), #98, .F. ) ;
#19 = EDGE_CURVE ( 'NONE', #192, #120, #130, .T. ) ;
#20 = PRODUCT_DEFINITION_FORMATION_WITH_SPECIFIED_SOURCE ( 'ANY', '', #214, .NOT_KNOWN. ) ;
#21 = ORIENTED_EDGE ( 'NONE', *, *, #67, .T. ) ;
#22 = DATE_AND_TIME ( #86, #237 ) ;
#23 = ORIENTED_EDGE ( 'NONE', *, *, #222, .F. ) ;
#24 = ORIENTED_EDGE ( 'NONE', *, *, #47, .F. ) ;
#25 = CARTESIAN_POINT ( 'NONE',  ( -4.750000000000000000, 24.99999999999997900, 25.00000000000000000 ) ) ;
#26 = CARTESIAN_POINT ( 'NONE',  ( 4.750000000000000000, -25.00000000000001100, -25.00000000000000000 ) ) ;
#27 = PERSON_AND_ORGANIZATION_ROLE ( 'design_owner' ) ;
#28 = APPROVAL_PERSON_ORGANIZATION ( #74, #80, #117 ) ;
#29 = PERSON_AND_ORGANIZATION_ROLE ( 'design_supplier' ) ;
#30 = DIRECTION ( 'NONE',  ( 0.0000000000000000000, 0.0000000000000000000, 1.000000000000000000 ) ) ;
#31 = CC_DESIGN_PERSON_AND_ORGANIZATION_ASSIGNMENT ( #57, #142, ( #20 ) ) ;
#32 = LINE ( 'NONE', #115, #11 ) ;
#33 = ADVANCED_FACE ( 'NONE', ( #136 ), #7, .F. ) ;
#34 = LINE ( 'NONE', #104, #97 ) ;
#35 = UNCERTAINTY_MEASURE_WITH_UNIT (LENGTH_MEASURE( 1.000000000000000100E-005 ), #180, 'distance_accuracy_value', 'NONE');
#36 = DIRECTION ( 'NONE',  ( -0.0000000000000000000, 1.000000000000000000, 0.0000000000000000000 ) ) ;
#37 = DESIGN_CONTEXT ( 'detailed design', #218, 'design' ) ;
#38 = ORIENTED_EDGE ( 'NONE', *, *, #50, .F. ) ;
#39 = PLANE ( 'NONE',  #70 ) ;
#40 = APPROVAL_DATE_TIME ( #193, #90 ) ;
#41 = CARTESIAN_POINT ( 'NONE',  ( 4.750000000000000000, 0.0000000000000000000, 0.0000000000000000000 ) ) ;
#42 = CARTESIAN_POINT ( 'NONE',  ( 4.750000000000000000, 24.99999999999997900, 25.00000000000000000 ) ) ;
#43 = DIRECTION ( 'NONE',  ( 0.0000000000000000000, -1.000000000000000000, -2.775557561562891400E-016 ) ) ;
#44 = APPROVAL_STATUS ( 'not_yet_approved' ) ;
#45 = ORIENTED_EDGE ( 'NONE', *, *, #184, .F. ) ;
#46 = EDGE_CURVE ( 'NONE', #131, #181, #123, .T. ) ;
#47 = EDGE_CURVE ( 'NONE', #186, #181, #188, .T. ) ;
#48 = VECTOR ( 'NONE', #135, 1000.000000000000000 ) ;
#49 = VECTOR ( 'NONE', #12, 1000.000000000000000 ) ;
#50 = EDGE_CURVE ( 'NONE', #120, #131, #32, .T. ) ;
#51 = FACE_OUTER_BOUND ( 'NONE', #89, .T. ) ;
#52 = ORIENTED_EDGE ( 'NONE', *, *, #46, .F. ) ;
#53 = COORDINATED_UNIVERSAL_TIME_OFFSET ( 5, 0, .BEHIND. ) ;
#54 = CARTESIAN_POINT ( 'NONE',  ( 4.750000000000000000, 24.99999999999998900, -25.00000000000000000 ) ) ;
#55 = CARTESIAN_POINT ( 'NONE',  ( 4.750000000000000000, 24.99999999999997900, 25.00000000000000000 ) ) ;
#56 = VERTEX_POINT ( 'NONE', #6 ) ;
#57 = PERSON_AND_ORGANIZATION ( #221, #201 ) ;
#58 = CARTESIAN_POINT ( 'NONE',  ( 4.750000000000000000, 24.99999999999997900, 25.00000000000000000 ) ) ;
#59 = AXIS2_PLACEMENT_3D ( 'NONE', #207, #62, #99 ) ;
#60 = VECTOR ( 'NONE', #105, 1000.000000000000000 ) ;
#61 = ADVANCED_FACE ( 'NONE', ( #83 ), #161, .F. ) ;
#62 = DIRECTION ( 'NONE',  ( 1.000000000000000000, 0.0000000000000000000, 0.0000000000000000000 ) ) ;
#63 = DATE_TIME_ROLE ( 'creation_date' ) ;
#64 = COORDINATED_UNIVERSAL_TIME_OFFSET ( 5, 0, .BEHIND. ) ;
#65 = PERSON_AND_ORGANIZATION_ROLE ( 'classification_officer' ) ;
#66 =( NAMED_UNIT ( * ) PLANE_ANGLE_UNIT ( ) SI_UNIT ( $, .RADIAN. ) );
#67 = EDGE_CURVE ( 'NONE', #56, #73, #219, .T. ) ;
#68 = ADVANCED_FACE ( 'NONE', ( #51 ), #159, .F. ) ;
#69 = CARTESIAN_POINT ( 'NONE',  ( 0.0000000000000000000, 0.0000000000000000000, 0.0000000000000000000 ) ) ;
#70 = AXIS2_PLACEMENT_3D ( 'NONE', #41, #212, #8 ) ;
#71 = EDGE_LOOP ( 'NONE', ( #198, #24, #45, #107 ) ) ;
#72 = LOCAL_TIME ( 15, 15, 36.00000000000000000, #224 ) ;
#73 = VERTEX_POINT ( 'NONE', #156 ) ;
#74 = PERSON_AND_ORGANIZATION ( #221, #201 ) ;
#75 = ORIENTED_EDGE ( 'NONE', *, *, #77, .T. ) ;
#76 = CARTESIAN_POINT ( 'NONE',  ( 4.750000000000000000, -25.00000000000001100, 25.00000000000000000 ) ) ;
#77 = EDGE_CURVE ( 'NONE', #181, #56, #2, .T. ) ;
#78 = COORDINATED_UNIVERSAL_TIME_OFFSET ( 5, 0, .BEHIND. ) ;
#79 = DIRECTION ( 'NONE',  ( 0.0000000000000000000, 0.0000000000000000000, -1.000000000000000000 ) ) ;
#80 = APPROVAL ( #44, 'UNSPECIFIED' ) ;
#81 = CARTESIAN_POINT ( 'NONE',  ( 4.750000000000000000, 24.99999999999997900, 25.00000000000000000 ) ) ;
#82 = APPLICATION_PROTOCOL_DEFINITION ( 'international standard', 'config_control_design', 1994, #10 ) ;
#83 = FACE_OUTER_BOUND ( 'NONE', #71, .T. ) ;
#84 = ADVANCED_FACE ( 'NONE', ( #3 ), #39, .T. ) ;
#85 = DIRECTION ( 'NONE',  ( 1.000000000000000000, 0.0000000000000000000, 0.0000000000000000000 ) ) ;
#86 = CALENDAR_DATE ( 2018, 12, 3 ) ;
#87 = DIRECTION ( 'NONE',  ( 0.0000000000000000000, 2.775557561562891400E-016, -1.000000000000000000 ) ) ;
#88 = EDGE_LOOP ( 'NONE', ( #143, #202, #52, #206 ) ) ;
#89 = EDGE_LOOP ( 'NONE', ( #155, #38, #146, #119 ) ) ;
#90 = APPROVAL ( #14, 'UNSPECIFIED' ) ;
#91 = VECTOR ( 'NONE', #204, 1000.000000000000000 ) ;
#92 = LOCAL_TIME ( 15, 15, 36.00000000000000000, #53 ) ;
#93 = CC_DESIGN_PERSON_AND_ORGANIZATION_ASSIGNMENT ( #160, #29, ( #20 ) ) ;
#94 = VECTOR ( 'NONE', #211, 1000.000000000000000 ) ;
#95 = APPROVAL_DATE_TIME ( #102, #165 ) ;
#96 = DIRECTION ( 'NONE',  ( -1.000000000000000000, -0.0000000000000000000, -0.0000000000000000000 ) ) ;
#97 = VECTOR ( 'NONE', #79, 1000.000000000000000 ) ;
#98 = PLANE ( 'NONE',  #125 ) ;
#99 = DIRECTION ( 'NONE',  ( 0.0000000000000000000, 0.0000000000000000000, -1.000000000000000000 ) ) ;
#100 = CARTESIAN_POINT ( 'NONE',  ( 4.750000000000000000, 24.99999999999997900, 25.00000000000000000 ) ) ;
#101 = AXIS2_PLACEMENT_3D ( 'NONE', #182, #43, #87 ) ;
#102 = DATE_AND_TIME ( #5, #92 ) ;
#103 = DIRECTION ( 'NONE',  ( -1.000000000000000000, 0.0000000000000000000, -0.0000000000000000000 ) ) ;
#104 = CARTESIAN_POINT ( 'NONE',  ( -4.750000000000000000, -25.00000000000001100, 25.00000000000000000 ) ) ;
#105 = DIRECTION ( 'NONE',  ( 0.0000000000000000000, -1.000000000000000000, 0.0000000000000000000 ) ) ;
#106 = APPROVAL_PERSON_ORGANIZATION ( #166, #165, #195 ) ;
#107 = ORIENTED_EDGE ( 'NONE', *, *, #50, .T. ) ;
#108 = APPROVAL_DATE_TIME ( #172, #80 ) ;
#109 = LINE ( 'NONE', #229, #164 ) ;
#110 = CLOSED_SHELL ( 'NONE', ( #18, #68, #61, #141, #84, #33 ) ) ;
#111 = AXIS2_PLACEMENT_3D ( 'NONE', #54, #230, #132 ) ;
#112 = DIRECTION ( 'NONE',  ( 0.0000000000000000000, 0.0000000000000000000, -1.000000000000000000 ) ) ;
#113 = CARTESIAN_POINT ( 'NONE',  ( 4.750000000000000000, 24.99999999999998900, -25.00000000000000000 ) ) ;
#114 = DIRECTION ( 'NONE',  ( -0.0000000000000000000, 1.000000000000000000, -0.0000000000000000000 ) ) ;
#115 = CARTESIAN_POINT ( 'NONE',  ( 4.750000000000000000, -25.00000000000001100, -25.00000000000000000 ) ) ;
#116 = SECURITY_CLASSIFICATION ( '', '', #167 ) ;
#117 = APPROVAL_ROLE ( '' ) ;
#118 =( NAMED_UNIT ( * ) SI_UNIT ( $, .STERADIAN. ) SOLID_ANGLE_UNIT ( ) );
#119 = ORIENTED_EDGE ( 'NONE', *, *, #17, .T. ) ;
#120 = VERTEX_POINT ( 'NONE', #26 ) ;
#121 = PERSON_AND_ORGANIZATION ( #221, #201 ) ;
#122 = AXIS2_PLACEMENT_3D ( 'NONE', #76, #36, #176 ) ;
#123 = LINE ( 'NONE', #177, #226 ) ;
#124 = ORIENTED_EDGE ( 'NONE', *, *, #157, .T. ) ;
#125 = AXIS2_PLACEMENT_3D ( 'NONE', #100, #179, #103 ) ;
#126 = PERSON_AND_ORGANIZATION ( #221, #201 ) ;
#127 = VERTEX_POINT ( 'NONE', #58 ) ;
#128 = CC_DESIGN_PERSON_AND_ORGANIZATION_ASSIGNMENT ( #199, #65, ( #116 ) ) ;
#129 = LINE ( 'NONE', #42, #232 ) ;
#130 = LINE ( 'NONE', #175, #235 ) ;
#131 = VERTEX_POINT ( 'NONE', #140 ) ;
#132 = DIRECTION ( 'NONE',  ( 1.000000000000000000, 0.0000000000000000000, 0.0000000000000000000 ) ) ;
#133 = LINE ( 'NONE', #144, #49 ) ;
#134 = CARTESIAN_POINT ( 'NONE',  ( -4.750000000000000000, 24.99999999999997900, 25.00000000000000000 ) ) ;
#135 = DIRECTION ( 'NONE',  ( -0.0000000000000000000, -2.775557561562891400E-016, 1.000000000000000000 ) ) ;
#136 = FACE_OUTER_BOUND ( 'NONE', #88, .T. ) ;
#137 =( GEOMETRIC_REPRESENTATION_CONTEXT ( 3 ) GLOBAL_UNCERTAINTY_ASSIGNED_CONTEXT ( ( #35 ) ) GLOBAL_UNIT_ASSIGNED_CONTEXT ( ( #180, #66, #118 ) ) REPRESENTATION_CONTEXT ( 'NONE', 'WORKASPACE' ) );
#138 = PRODUCT_DEFINITION_SHAPE ( 'NONE', 'NONE',  #200 ) ;
#139 = EDGE_LOOP ( 'NONE', ( #21, #154, #23, #124 ) ) ;
#140 = CARTESIAN_POINT ( 'NONE',  ( -4.750000000000000000, -25.00000000000001100, -25.00000000000000000 ) ) ;
#141 = ADVANCED_FACE ( 'NONE', ( #151 ), #162, .F. ) ;
#142 = PERSON_AND_ORGANIZATION_ROLE ( 'creator' ) ;
#143 = ORIENTED_EDGE ( 'NONE', *, *, #67, .F. ) ;
#144 = CARTESIAN_POINT ( 'NONE',  ( 4.750000000000000000, 24.99999999999998900, -25.00000000000000000 ) ) ;
#145 = VECTOR ( 'NONE', #191, 1000.000000000000000 ) ;
#146 = ORIENTED_EDGE ( 'NONE', *, *, #19, .F. ) ;
#147 = COORDINATED_UNIVERSAL_TIME_OFFSET ( 5, 0, .BEHIND. ) ;
#148 = CC_DESIGN_DATE_AND_TIME_ASSIGNMENT ( #13, #236, ( #116 ) ) ;
#149 = ORIENTED_EDGE ( 'NONE', *, *, #157, .F. ) ;
#150 = PERSON_AND_ORGANIZATION ( #221, #201 ) ;
#151 = FACE_OUTER_BOUND ( 'NONE', #16, .T. ) ;
#152 = ORIENTED_EDGE ( 'NONE', *, *, #47, .T. ) ;
#153 = AXIS2_PLACEMENT_3D ( 'NONE', #69, #30, #85 ) ;
#154 = ORIENTED_EDGE ( 'NONE', *, *, #17, .F. ) ;
#155 = ORIENTED_EDGE ( 'NONE', *, *, #171, .T. ) ;
#156 = CARTESIAN_POINT ( 'NONE',  ( -4.750000000000000000, -25.00000000000001100, 25.00000000000000000 ) ) ;
#157 = EDGE_CURVE ( 'NONE', #127, #56, #129, .T. ) ;
#158 = ADVANCED_BREP_SHAPE_REPRESENTATION ( 'Web Model 43214_43226', ( #190, #153 ), #137 ) ;
#159 = PLANE ( 'NONE',  #122 ) ;
#160 = PERSON_AND_ORGANIZATION ( #221, #201 ) ;
#161 = PLANE ( 'NONE',  #111 ) ;
#162 = PLANE ( 'NONE',  #101 ) ;
#163 = APPROVAL_ROLE ( '' ) ;
#164 = VECTOR ( 'NONE', #96, 1000.000000000000000 ) ;
#165 = APPROVAL ( #168, 'UNSPECIFIED' ) ;
#166 = PERSON_AND_ORGANIZATION ( #221, #201 ) ;
#167 = SECURITY_CLASSIFICATION_LEVEL ( 'unclassified' ) ;
#168 = APPROVAL_STATUS ( 'not_yet_approved' ) ;
#169 = CALENDAR_DATE ( 2018, 12, 3 ) ;
#170 = CALENDAR_DATE ( 2018, 12, 3 ) ;
#171 = EDGE_CURVE ( 'NONE', #73, #131, #34, .T. ) ;
#172 = DATE_AND_TIME ( #209, #225 ) ;
#173 = CC_DESIGN_APPROVAL ( #165, ( #116 ) ) ;
#174 = ORIENTED_EDGE ( 'NONE', *, *, #184, .T. ) ;
#175 = CARTESIAN_POINT ( 'NONE',  ( 4.750000000000000000, -25.00000000000001100, 25.00000000000000000 ) ) ;
#176 = DIRECTION ( 'NONE',  ( 0.0000000000000000000, -0.0000000000000000000, 1.000000000000000000 ) ) ;
#177 = CARTESIAN_POINT ( 'NONE',  ( -4.750000000000000000, 24.99999999999998900, -25.00000000000000000 ) ) ;
#178 = ORIENTED_EDGE ( 'NONE', *, *, #9, .T. ) ;
#179 = DIRECTION ( 'NONE',  ( 0.0000000000000000000, 0.0000000000000000000, -1.000000000000000000 ) ) ;
#180 =( LENGTH_UNIT ( ) NAMED_UNIT ( * ) SI_UNIT ( .MILLI., .METRE. ) );
#181 = VERTEX_POINT ( 'NONE', #15 ) ;
#182 = CARTESIAN_POINT ( 'NONE',  ( 4.750000000000000000, 24.99999999999997900, 25.00000000000000000 ) ) ;
#183 = CARTESIAN_POINT ( 'NONE',  ( 4.750000000000000000, 24.99999999999998900, -25.00000000000000000 ) ) ;
#184 = EDGE_CURVE ( 'NONE', #120, #186, #133, .T. ) ;
#185 = CC_DESIGN_SECURITY_CLASSIFICATION ( #116, ( #20 ) ) ;
#186 = VERTEX_POINT ( 'NONE', #183 ) ;
#187 = SHAPE_DEFINITION_REPRESENTATION ( #138, #158 ) ;
#188 = LINE ( 'NONE', #113, #91 ) ;
#189 = CC_DESIGN_PERSON_AND_ORGANIZATION_ASSIGNMENT ( #126, #27, ( #214 ) ) ;
#190 = MANIFOLD_SOLID_BREP ( 'Boss-Extrude1', #110 ) ;
#191 = DIRECTION ( 'NONE',  ( 0.0000000000000000000, -1.000000000000000000, 0.0000000000000000000 ) ) ;
#192 = VERTEX_POINT ( 'NONE', #196 ) ;
#193 = DATE_AND_TIME ( #169, #210 ) ;
#194 = DIRECTION ( 'NONE',  ( -1.000000000000000000, -0.0000000000000000000, -0.0000000000000000000 ) ) ;
#195 = APPROVAL_ROLE ( '' ) ;
#196 = CARTESIAN_POINT ( 'NONE',  ( 4.750000000000000000, -25.00000000000001100, 25.00000000000000000 ) ) ;
#197 = PRODUCT_RELATED_PRODUCT_CATEGORY ( 'detail', '', ( #214 ) ) ;
#198 = ORIENTED_EDGE ( 'NONE', *, *, #46, .T. ) ;
#199 = PERSON_AND_ORGANIZATION ( #221, #201 ) ;
#200 = PRODUCT_DEFINITION ( 'UNKNOWN', '', #20, #37 ) ;
#201 = ORGANIZATION ( 'UNSPECIFIED', 'UNSPECIFIED', '' ) ;
#202 = ORIENTED_EDGE ( 'NONE', *, *, #77, .F. ) ;
#203 = ORIENTED_EDGE ( 'NONE', *, *, #222, .T. ) ;
#204 = DIRECTION ( 'NONE',  ( -1.000000000000000000, -0.0000000000000000000, -0.0000000000000000000 ) ) ;
#205 = LINE ( 'NONE', #55, #94 ) ;
#206 = ORIENTED_EDGE ( 'NONE', *, *, #171, .F. ) ;
#207 = CARTESIAN_POINT ( 'NONE',  ( -4.750000000000000000, 0.0000000000000000000, 0.0000000000000000000 ) ) ;
#208 = ORIENTED_EDGE ( 'NONE', *, *, #9, .F. ) ;
#209 = CALENDAR_DATE ( 2018, 12, 3 ) ;
#210 = LOCAL_TIME ( 15, 15, 36.00000000000000000, #147 ) ;
#211 = DIRECTION ( 'NONE',  ( -0.0000000000000000000, -2.775557561562891400E-016, 1.000000000000000000 ) ) ;
#212 = DIRECTION ( 'NONE',  ( 1.000000000000000000, 0.0000000000000000000, 0.0000000000000000000 ) ) ;
#213 = CC_DESIGN_APPROVAL ( #90, ( #200 ) ) ;
#214 = PRODUCT ( 'Web Model 43214_43226', 'Web Model 43214_43226', '', ( #215 ) ) ;
#215 = MECHANICAL_CONTEXT ( 'NONE', #10, 'mechanical' ) ;
#216 = EDGE_LOOP ( 'NONE', ( #203, #4, #174, #178 ) ) ;
#217 = PERSON_AND_ORGANIZATION_ROLE ( 'creator' ) ;
#218 = APPLICATION_CONTEXT ( 'configuration controlled 3d designs of mechanical parts and assemblies' ) ;
#219 = LINE ( 'NONE', #25, #145 ) ;
#220 = FACE_OUTER_BOUND ( 'NONE', #139, .T. ) ;
#221 = PERSON ( 'UNSPECIFIED', 'UNSPECIFIED', 'UNSPECIFIED', ('UNSPECIFIED'), ('UNSPECIFIED'), ('UNSPECIFIED') ) ;
#222 = EDGE_CURVE ( 'NONE', #127, #192, #228, .T. ) ;
#223 = APPROVAL_PERSON_ORGANIZATION ( #121, #90, #163 ) ;
#224 = COORDINATED_UNIVERSAL_TIME_OFFSET ( 5, 0, .BEHIND. ) ;
#225 = LOCAL_TIME ( 15, 15, 36.00000000000000000, #78 ) ;
#226 = VECTOR ( 'NONE', #114, 1000.000000000000000 ) ;
#227 = CC_DESIGN_PERSON_AND_ORGANIZATION_ASSIGNMENT ( #150, #217, ( #200 ) ) ;
#228 = LINE ( 'NONE', #81, #60 ) ;
#229 = CARTESIAN_POINT ( 'NONE',  ( 4.750000000000000000, -25.00000000000001100, 25.00000000000000000 ) ) ;
#230 = DIRECTION ( 'NONE',  ( -0.0000000000000000000, 0.0000000000000000000, 1.000000000000000000 ) ) ;
#231 = DIRECTION ( 'NONE',  ( -1.000000000000000000, -0.0000000000000000000, -0.0000000000000000000 ) ) ;
#232 = VECTOR ( 'NONE', #231, 1000.000000000000000 ) ;
#233 = APPLICATION_PROTOCOL_DEFINITION ( 'international standard', 'config_control_design', 1994, #218 ) ;
#234 = CC_DESIGN_APPROVAL ( #80, ( #20 ) ) ;
#235 = VECTOR ( 'NONE', #112, 1000.000000000000000 ) ;
#236 = DATE_TIME_ROLE ( 'classification_date' ) ;
#237 = LOCAL_TIME ( 15, 15, 36.00000000000000000, #64 ) ;
ENDSEC;
END-ISO-10303-21;
