ISO-10303-21;
HEADER;
FILE_DESCRIPTION (( 'STEP AP203' ),
    '1' );
FILE_NAME ('Web Model 11540_11540.step',
    '2019-12-17T13:43:13',
    ( '' ),
    ( '' ),
    'SwSTEP 2.0',
    'SolidWorks 2018',
    '' );
FILE_SCHEMA (( 'CONFIG_CONTROL_DESIGN' ));
ENDSEC;

DATA;
#1 = DIRECTION ( 'NONE',  ( 1.000000000000000000, 0.0000000000000000000, 0.0000000000000000000 ) ) ;
#2 = DIRECTION ( 'NONE',  ( 0.0000000000000000000, -0.1117956477792971803, -0.9937312177533759172 ) ) ;
#3 = APPROVAL_PERSON_ORGANIZATION ( #5, #215, #76 ) ;
#4 = MECHANICAL_CONTEXT ( 'NONE', #28, 'mechanical' ) ;
#5 = PERSON_AND_ORGANIZATION ( #60, #191 ) ;
#6 = PERSON_AND_ORGANIZATION_ROLE ( 'design_supplier' ) ;
#7 = EDGE_LOOP ( 'NONE', ( #220, #282, #42 ) ) ;
#8 = FACE_OUTER_BOUND ( 'NONE', #73, .T. ) ;
#9 = CYLINDRICAL_SURFACE ( 'NONE', #149, 12.50000000000000000 ) ;
#10 = CARTESIAN_POINT ( 'NONE',  ( 159.7319999999999993, 0.0000000000000000000, 0.0000000000000000000 ) ) ;
#11 = ORIENTED_EDGE ( 'NONE', *, *, #280, .F. ) ;
#12 = PLANE ( 'NONE',  #156 ) ;
#13 = APPROVAL_PERSON_ORGANIZATION ( #137, #59, #31 ) ;
#14 = ORIENTED_EDGE ( 'NONE', *, *, #96, .T. ) ;
#15 = ADVANCED_FACE ( 'NONE', ( #8 ), #100, .T. ) ;
#16 = DIRECTION ( 'NONE',  ( -1.000000000000000000, 0.0000000000000000000, 0.0000000000000000000 ) ) ;
#17 = ADVANCED_FACE ( 'NONE', ( #155 ), #108, .F. ) ;
#18 = COORDINATED_UNIVERSAL_TIME_OFFSET ( 5, 0, .BEHIND. ) ;
#19 = CONICAL_SURFACE ( 'NONE', #300, 49.30127720138001735, 0.7853981633972997312 ) ;
#20 = ADVANCED_FACE ( 'NONE', ( #98 ), #278, .T. ) ;
#21 = DIRECTION ( 'NONE',  ( 1.000000000000000000, 0.0000000000000000000, 0.0000000000000000000 ) ) ;
#22 = DIRECTION ( 'NONE',  ( 0.0000000000000000000, -1.000000000000000000, 0.0000000000000000000 ) ) ;
#23 = APPLICATION_PROTOCOL_DEFINITION ( 'international standard', 'config_control_design', 1994, #55 ) ;
#24 = FACE_OUTER_BOUND ( 'NONE', #246, .T. ) ;
#25 = CARTESIAN_POINT ( 'NONE',  ( 0.0000000000000000000, -0.9377631239121000384, -11.95381677896000028 ) ) ;
#26 = EDGE_LOOP ( 'NONE', ( #11, #174, #54 ) ) ;
#27 = MANIFOLD_SOLID_BREP ( 'Web Model 11540.stp', #124 ) ;
#28 = APPLICATION_CONTEXT ( 'configuration controlled 3d designs of mechanical parts and assemblies' ) ;
#29 = DIRECTION ( 'NONE',  ( 0.0000000000000000000, 0.0000000000000000000, 1.000000000000000000 ) ) ;
#30 = PERSON_AND_ORGANIZATION ( #60, #191 ) ;
#31 = APPROVAL_ROLE ( '' ) ;
#32 =( GEOMETRIC_REPRESENTATION_CONTEXT ( 3 ) GLOBAL_UNCERTAINTY_ASSIGNED_CONTEXT ( ( #90 ) ) GLOBAL_UNIT_ASSIGNED_CONTEXT ( ( #268, #120, #140 ) ) REPRESENTATION_CONTEXT ( 'NONE', 'WORKASPACE' ) );
#33 = VECTOR ( 'NONE', #240, 1000.000000000000000 ) ;
#34 = B_SPLINE_CURVE_WITH_KNOTS ( 'NONE', 3,
 ( #188, #284, #262, #114 ),
 .UNSPECIFIED., .F., .F.,
 ( 4, 4 ),
 ( 0.0000000000000000000, 1.000000000000000000 ),
 .UNSPECIFIED. ) ;
#35 = ORIENTED_EDGE ( 'NONE', *, *, #313, .T. ) ;
#36 = DIRECTION ( 'NONE',  ( 0.0000000000000000000, -1.000000000000000000, 0.0000000000000000000 ) ) ;
#37 = ORIENTED_EDGE ( 'NONE', *, *, #187, .T. ) ;
#38 = VERTEX_POINT ( 'NONE', #228 ) ;
#39 = DIRECTION ( 'NONE',  ( 0.0000000000000000000, 1.000000000000000000, 0.0000000000000000000 ) ) ;
#40 = DIRECTION ( 'NONE',  ( -0.1811202098000949112, 0.0000000000000000000, -0.9834609649609737936 ) ) ;
#41 = PERSON_AND_ORGANIZATION ( #60, #191 ) ;
#42 = ORIENTED_EDGE ( 'NONE', *, *, #290, .F. ) ;
#43 = CARTESIAN_POINT ( 'NONE',  ( 10.34781355842000039, 1.097922631622000080E-14, 0.0000000000000000000 ) ) ;
#44 = ADVANCED_FACE ( 'NONE', ( #127 ), #260, .F. ) ;
#45 = CARTESIAN_POINT ( 'NONE',  ( 9.019813558424999655, 12.50000000000000000, 0.0000000000000000000 ) ) ;
#46 = CC_DESIGN_SECURITY_CLASSIFICATION ( #176, ( #79 ) ) ;
#47 = CARTESIAN_POINT ( 'NONE',  ( 9.683813558424999357, 1.106054286369000016E-14, 0.0000000000000000000 ) ) ;
#48 = CONICAL_SURFACE ( 'NONE', #189, 11.34991826377000024, 1.047197551196400456 ) ;
#49 = DIRECTION ( 'NONE',  ( 1.000000000000000000, 0.0000000000000000000, 0.0000000000000000000 ) ) ;
#50 = CARTESIAN_POINT ( 'NONE',  ( 0.0000000000000000000, 0.0000000000000000000, -11.00000000000000000 ) ) ;
#51 = DIRECTION ( 'NONE',  ( 0.0000000000000000000, 1.000000000000000000, 0.0000000000000000000 ) ) ;
#52 = LOCAL_TIME ( 8, 43, 13.00000000000000000, #18 ) ;
#53 = CARTESIAN_POINT ( 'NONE',  ( 4.090387894387077061, 0.5817536365107007779, -12.50000000000000178 ) ) ;
#54 = ORIENTED_EDGE ( 'NONE', *, *, #224, .T. ) ;
#55 = APPLICATION_CONTEXT ( 'configuration controlled 3d designs of mechanical parts and assemblies' ) ;
#56 = COORDINATED_UNIVERSAL_TIME_OFFSET ( 5, 0, .BEHIND. ) ;
#57 = FACE_OUTER_BOUND ( 'NONE', #227, .T. ) ;
#58 = ORIENTED_EDGE ( 'NONE', *, *, #253, .T. ) ;
#59 = APPROVAL ( #168, 'UNSPECIFIED' ) ;
#60 = PERSON ( 'UNSPECIFIED', 'UNSPECIFIED', 'UNSPECIFIED', ('UNSPECIFIED'), ('UNSPECIFIED'), ('UNSPECIFIED') ) ;
#61 = VERTEX_POINT ( 'NONE', #255 ) ;
#62 = DIRECTION ( 'NONE',  ( 1.000000000000000000, 0.0000000000000000000, 0.0000000000000000000 ) ) ;
#63 = DIRECTION ( 'NONE',  ( 0.0000000000000000000, 0.0000000000000000000, -1.000000000000000000 ) ) ;
#64 = DIRECTION ( 'NONE',  ( -1.000000000000000000, 0.0000000000000000000, 0.0000000000000000000 ) ) ;
#65 = ADVANCED_FACE ( 'NONE', ( #213 ), #19, .F. ) ;
#66 = CARTESIAN_POINT ( 'NONE',  ( 9.019813558424999655, -12.50000000000000000, 0.0000000000000000000 ) ) ;
#67 = LOCAL_TIME ( 8, 43, 13.00000000000000000, #248 ) ;
#68 = ORIENTED_EDGE ( 'NONE', *, *, #313, .F. ) ;
#69 = CARTESIAN_POINT ( 'NONE',  ( 0.0000000000000000000, -1.397445597240999815, -12.42164022192000061 ) ) ;
#70 = VERTEX_POINT ( 'NONE', #86 ) ;
#71 = CC_DESIGN_PERSON_AND_ORGANIZATION_ASSIGNMENT ( #245, #275, ( #79 ) ) ;
#72 = DATE_AND_TIME ( #197, #67 ) ;
#73 = EDGE_LOOP ( 'NONE', ( #89, #298, #169, #35 ) ) ;
#74 = DIRECTION ( 'NONE',  ( -0.5000000000000169864, -0.8660254037844288266, 0.0000000000000000000 ) ) ;
#75 = DIRECTION ( 'NONE',  ( 0.1811202098000949390, 0.0000000000000000000, 0.9834609649609735715 ) ) ;
#76 = APPROVAL_ROLE ( '' ) ;
#77 = DATE_AND_TIME ( #82, #142 ) ;
#78 = FACE_OUTER_BOUND ( 'NONE', #26, .T. ) ;
#79 = PRODUCT_DEFINITION_FORMATION_WITH_SPECIFIED_SOURCE ( 'ANY', '', #196, .NOT_KNOWN. ) ;
#80 = DATE_AND_TIME ( #154, #52 ) ;
#81 = ORIENTED_EDGE ( 'NONE', *, *, #263, .T. ) ;
#82 = CALENDAR_DATE ( 2019, 17, 12 ) ;
#83 = LINE ( 'NONE', #243, #259 ) ;
#84 = AXIS2_PLACEMENT_3D ( 'NONE', #166, #29, #219 ) ;
#85 = ORIENTED_EDGE ( 'NONE', *, *, #253, .F. ) ;
#86 = CARTESIAN_POINT ( 'NONE',  ( 9.019813558424999655, -12.50000000000000000, 0.0000000000000000000 ) ) ;
#87 = ADVANCED_FACE ( 'NONE', ( #252 ), #12, .F. ) ;
#88 = PERSON_AND_ORGANIZATION ( #60, #191 ) ;
#89 = ORIENTED_EDGE ( 'NONE', *, *, #175, .T. ) ;
#90 = UNCERTAINTY_MEASURE_WITH_UNIT (LENGTH_MEASURE( 1.000000000000000082E-05 ), #268, 'distance_accuracy_value', 'NONE');
#91 = CC_DESIGN_DATE_AND_TIME_ASSIGNMENT ( #130, #301, ( #176 ) ) ;
#92 = CARTESIAN_POINT ( 'NONE',  ( 0.0000000000000000000, 1.397445597240999815, -12.42164022192000061 ) ) ;
#93 = LINE ( 'NONE', #66, #33 ) ;
#94 = APPROVAL_ROLE ( '' ) ;
#95 = VERTEX_POINT ( 'NONE', #153 ) ;
#96 = EDGE_CURVE ( 'NONE', #38, #61, #308, .T. ) ;
#97 = CALENDAR_DATE ( 2019, 17, 12 ) ;
#98 = FACE_OUTER_BOUND ( 'NONE', #160, .T. ) ;
#99 = PERSON_AND_ORGANIZATION_ROLE ( 'design_owner' ) ;
#100 = CONICAL_SURFACE ( 'NONE', #303, 11.34991826377000024, 1.047197551196400456 ) ;
#101 = AXIS2_PLACEMENT_3D ( 'NONE', #256, #113, #109 ) ;
#102 = CIRCLE ( 'NONE', #225, 12.50000000000000000 ) ;
#103 = LINE ( 'NONE', #45, #302 ) ;
#104 = ORIENTED_EDGE ( 'NONE', *, *, #312, .T. ) ;
#105 = CARTESIAN_POINT ( 'NONE',  ( 159.7319999999999993, 0.0000000000000000000, 0.0000000000000000000 ) ) ;
#106 = DIRECTION ( 'NONE',  ( 0.0000000000000000000, 1.000000000000000000, 0.0000000000000000000 ) ) ;
#107 = PERSON_AND_ORGANIZATION ( #60, #191 ) ;
#108 = SPHERICAL_SURFACE ( 'NONE', #231, 149.7319999999999993 ) ;
#109 = DIRECTION ( 'NONE',  ( 0.0000000000000000000, 1.000000000000000000, 0.0000000000000000000 ) ) ;
#110 = EDGE_CURVE ( 'NONE', #95, #150, #186, .T. ) ;
#111 = CARTESIAN_POINT ( 'NONE',  ( 0.0000000000000000000, 1.224646799146999965E-14, 0.0000000000000000000 ) ) ;
#112 = CC_DESIGN_PERSON_AND_ORGANIZATION_ASSIGNMENT ( #88, #99, ( #196 ) ) ;
#113 = DIRECTION ( 'NONE',  ( -1.000000000000000000, 0.0000000000000000000, 0.0000000000000000000 ) ) ;
#114 = CARTESIAN_POINT ( 'NONE',  ( 6.019813558425000544, 0.0000000000000000000, -12.50000000000000000 ) ) ;
#115 = CIRCLE ( 'NONE', #164, 12.50000000000000178 ) ;
#116 = PERSON_AND_ORGANIZATION_ROLE ( 'creator' ) ;
#117 = CARTESIAN_POINT ( 'NONE',  ( 0.0000000000000000000, 1.224646799146999965E-14, 0.0000000000000000000 ) ) ;
#118 = DESIGN_CONTEXT ( 'detailed design', #55, 'design' ) ;
#119 = AXIS2_PLACEMENT_3D ( 'NONE', #43, #16, #232 ) ;
#120 =( NAMED_UNIT ( * ) PLANE_ANGLE_UNIT ( ) SI_UNIT ( $, .RADIAN. ) );
#121 = ORIENTED_EDGE ( 'NONE', *, *, #202, .T. ) ;
#122 = ORIENTED_EDGE ( 'NONE', *, *, #290, .T. ) ;
#123 = LOCAL_TIME ( 8, 43, 13.00000000000000000, #185 ) ;
#124 = CLOSED_SHELL ( 'NONE', ( #44, #17, #210, #15, #289, #20, #179, #87, #65 ) ) ;
#125 = CARTESIAN_POINT ( 'NONE',  ( 0.0000000000000000000, 1.224646799146999965E-14, 0.0000000000000000000 ) ) ;
#126 = LINE ( 'NONE', #297, #277 ) ;
#127 = FACE_OUTER_BOUND ( 'NONE', #285, .T. ) ;
#128 = AXIS2_PLACEMENT_3D ( 'NONE', #226, #62, #203 ) ;
#129 = DIRECTION ( 'NONE',  ( 0.0000000000000000000, 1.000000000000000000, 0.0000000000000000000 ) ) ;
#130 = DATE_AND_TIME ( #205, #307 ) ;
#131 = ORIENTED_EDGE ( 'NONE', *, *, #175, .F. ) ;
#132 = EDGE_CURVE ( 'NONE', #38, #61, #208, .T. ) ;
#133 = DIRECTION ( 'NONE',  ( 1.000000000000000000, 0.0000000000000000000, 0.0000000000000000000 ) ) ;
#134 = DIRECTION ( 'NONE',  ( 0.0000000000000000000, 1.000000000000000000, 0.0000000000000000000 ) ) ;
#135 = AXIS2_PLACEMENT_3D ( 'NONE', #206, #258, #64 ) ;
#136 = APPROVAL_STATUS ( 'not_yet_approved' ) ;
#137 = PERSON_AND_ORGANIZATION ( #60, #191 ) ;
#138 = ORIENTED_EDGE ( 'NONE', *, *, #110, .F. ) ;
#139 = DIRECTION ( 'NONE',  ( 0.0000000000000000000, 1.000000000000000000, 0.0000000000000000000 ) ) ;
#140 =( NAMED_UNIT ( * ) SI_UNIT ( $, .STERADIAN. ) SOLID_ANGLE_UNIT ( ) );
#141 = CARTESIAN_POINT ( 'NONE',  ( 2.083783374912076880, 1.047822747161496260, -12.46097310419441762 ) ) ;
#142 = LOCAL_TIME ( 8, 43, 13.00000000000000000, #207 ) ;
#143 = CIRCLE ( 'NONE', #119, 10.19983652755000136 ) ;
#144 = SECURITY_CLASSIFICATION_LEVEL ( 'unclassified' ) ;
#145 = AXIS2_PLACEMENT_3D ( 'NONE', #190, #1, #139 ) ;
#146 = B_SPLINE_CURVE_WITH_KNOTS ( 'NONE', 3,
 ( #50, #264, #296, #25, #216, #214 ),
 .UNSPECIFIED., .F., .F.,
 ( 4, 1, 1, 4 ),
 ( 0.0000000000000000000, 0.3333333333333000081, 0.6666666666667000474, 1.000000000000000000 ),
 .UNSPECIFIED. ) ;
#147 = VERTEX_POINT ( 'NONE', #69 ) ;
#148 = CARTESIAN_POINT ( 'NONE',  ( 9.683813558424999357, 1.106054286369000016E-14, 0.0000000000000000000 ) ) ;
#149 = AXIS2_PLACEMENT_3D ( 'NONE', #163, #49, #295 ) ;
#150 = VERTEX_POINT ( 'NONE', #92 ) ;
#151 = DIRECTION ( 'NONE',  ( 0.0000000000000000000, -1.000000000000000000, 0.0000000000000000000 ) ) ;
#152 = DIRECTION ( 'NONE',  ( 0.0000000000000000000, 1.000000000000000000, 0.0000000000000000000 ) ) ;
#153 = CARTESIAN_POINT ( 'NONE',  ( 0.0000000000000000000, 12.50000000000000000, 0.0000000000000000000 ) ) ;
#154 = CALENDAR_DATE ( 2019, 17, 12 ) ;
#155 = FACE_OUTER_BOUND ( 'NONE', #165, .T. ) ;
#156 = AXIS2_PLACEMENT_3D ( 'NONE', #125, #21, #129 ) ;
#157 = CARTESIAN_POINT ( 'NONE',  ( 0.0000000000000000000, 1.244799939085999840, -12.26627372673999972 ) ) ;
#158 = ADVANCED_BREP_SHAPE_REPRESENTATION ( 'Web Model 11540_11540', ( #27, #84 ), #32 ) ;
#159 = DIRECTION ( 'NONE',  ( 0.1811202098000949390, 0.0000000000000000000, 0.9834609649609737936 ) ) ;
#160 = EDGE_LOOP ( 'NONE', ( #138, #293, #305, #58, #247, #121, #241 ) ) ;
#161 = DIRECTION ( 'NONE',  ( -1.000000000000000000, 0.0000000000000000000, 0.0000000000000000000 ) ) ;
#162 = ORIENTED_EDGE ( 'NONE', *, *, #242, .T. ) ;
#163 = CARTESIAN_POINT ( 'NONE',  ( -0.5173906779211999707, 1.230983007523999819E-14, 0.0000000000000000000 ) ) ;
#164 = AXIS2_PLACEMENT_3D ( 'NONE', #117, #161, #2 ) ;
#165 = EDGE_LOOP ( 'NONE', ( #14, #221 ) ) ;
#166 = CARTESIAN_POINT ( 'NONE',  ( 0.0000000000000000000, 0.0000000000000000000, 0.0000000000000000000 ) ) ;
#167 = B_SPLINE_CURVE_WITH_KNOTS ( 'NONE', 3,
 ( #315, #182, #310, #229, #157, #184 ),
 .UNSPECIFIED., .F., .F.,
 ( 4, 1, 1, 4 ),
 ( 0.0000000000000000000, 0.3333333333333000081, 0.6666666666667000474, 1.000000000000000000 ),
 .UNSPECIFIED. ) ;
#168 = APPROVAL_STATUS ( 'not_yet_approved' ) ;
#169 = ORIENTED_EDGE ( 'NONE', *, *, #132, .F. ) ;
#170 = ORIENTED_EDGE ( 'NONE', *, *, #132, .T. ) ;
#171 = AXIS2_PLACEMENT_3D ( 'NONE', #192, #51, #75 ) ;
#172 = PRODUCT_DEFINITION_SHAPE ( 'NONE', 'NONE',  #218 ) ;
#173 = PERSON_AND_ORGANIZATION ( #60, #191 ) ;
#174 = ORIENTED_EDGE ( 'NONE', *, *, #299, .F. ) ;
#175 = EDGE_CURVE ( 'NONE', #249, #70, #102, .T. ) ;
#176 = SECURITY_CLASSIFICATION ( '', '', #144 ) ;
#177 = APPROVAL_DATE_TIME ( #80, #215 ) ;
#178 = CIRCLE ( 'NONE', #101, 12.50000000000000000 ) ;
#179 = ADVANCED_FACE ( 'NONE', ( #78 ), #235, .F. ) ;
#180 = CC_DESIGN_PERSON_AND_ORGANIZATION_ASSIGNMENT ( #107, #6, ( #79 ) ) ;
#181 = APPROVAL_DATE_TIME ( #77, #59 ) ;
#182 = CARTESIAN_POINT ( 'NONE',  ( 0.0000000000000000000, 0.1579079139961999945, -11.16056347900000034 ) ) ;
#183 = DIRECTION ( 'NONE',  ( 0.0000000000000000000, 1.000000000000000000, 0.0000000000000000000 ) ) ;
#184 = CARTESIAN_POINT ( 'NONE',  ( 0.0000000000000000000, 1.397445597240999815, -12.42164022192000061 ) ) ;
#185 = COORDINATED_UNIVERSAL_TIME_OFFSET ( 5, 0, .BEHIND. ) ;
#186 = CIRCLE ( 'NONE', #286, 12.50000000000000000 ) ;
#187 = EDGE_CURVE ( 'NONE', #38, #61, #143, .T. ) ;
#188 = CARTESIAN_POINT ( 'NONE',  ( 0.0000000000000000000, -1.397445597240999815, -12.42164022192000061 ) ) ;
#189 = AXIS2_PLACEMENT_3D ( 'NONE', #47, #209, #288 ) ;
#190 = CARTESIAN_POINT ( 'NONE',  ( 0.0000000000000000000, 1.224646799146999965E-14, 0.0000000000000000000 ) ) ;
#191 = ORGANIZATION ( 'UNSPECIFIED', 'UNSPECIFIED', '' ) ;
#192 = CARTESIAN_POINT ( 'NONE',  ( -9.056010490006000779, 0.0000000000000000000, -60.17304824805000152 ) ) ;
#193 = APPLICATION_PROTOCOL_DEFINITION ( 'international standard', 'config_control_design', 1994, #28 ) ;
#194 = CARTESIAN_POINT ( 'NONE',  ( 0.0000000000000000000, 0.0000000000000000000, -11.00000000000000000 ) ) ;
#195 = EDGE_LOOP ( 'NONE', ( #122, #81, #200, #276, #237 ) ) ;
#196 = PRODUCT ( 'Web Model 11540_11540', 'Web Model 11540_11540', '', ( #4 ) ) ;
#197 = CALENDAR_DATE ( 2019, 17, 12 ) ;
#198 = B_SPLINE_CURVE_WITH_KNOTS ( 'NONE', 3,
 ( #269, #53, #141, #217 ),
 .UNSPECIFIED., .F., .F.,
 ( 4, 4 ),
 ( 0.0000000000000000000, 1.000000000000000000 ),
 .UNSPECIFIED. ) ;
#199 = APPROVAL_PERSON_ORGANIZATION ( #30, #222, #94 ) ;
#200 = ORIENTED_EDGE ( 'NONE', *, *, #274, .F. ) ;
#201 = DIRECTION ( 'NONE',  ( -1.000000000000000000, 0.0000000000000000000, 0.0000000000000000000 ) ) ;
#202 = EDGE_CURVE ( 'NONE', #147, #230, #34, .T. ) ;
#203 = DIRECTION ( 'NONE',  ( 0.0000000000000000000, -1.000000000000000000, 0.0000000000000000000 ) ) ;
#204 = AXIS2_PLACEMENT_3D ( 'NONE', #105, #281, #151 ) ;
#205 = CALENDAR_DATE ( 2019, 17, 12 ) ;
#206 = CARTESIAN_POINT ( 'NONE',  ( 159.7319999999999993, 0.0000000000000000000, 0.0000000000000000000 ) ) ;
#207 = COORDINATED_UNIVERSAL_TIME_OFFSET ( 5, 0, .BEHIND. ) ;
#208 = CIRCLE ( 'NONE', #270, 10.19983652755000136 ) ;
#209 = DIRECTION ( 'NONE',  ( -1.000000000000000000, 0.0000000000000000000, 0.0000000000000000000 ) ) ;
#210 = ADVANCED_FACE ( 'NONE', ( #57 ), #48, .T. ) ;
#211 = DIRECTION ( 'NONE',  ( 1.000000000000000000, 0.0000000000000000000, 0.0000000000000000000 ) ) ;
#212 = APPROVAL_STATUS ( 'not_yet_approved' ) ;
#213 = FACE_OUTER_BOUND ( 'NONE', #7, .T. ) ;
#214 = CARTESIAN_POINT ( 'NONE',  ( 0.0000000000000000000, -1.397445597240999815, -12.42164022192000061 ) ) ;
#215 = APPROVAL ( #212, 'UNSPECIFIED' ) ;
#216 = CARTESIAN_POINT ( 'NONE',  ( 0.0000000000000000000, -1.244801961272000268, -12.26627578497000037 ) ) ;
#217 = CARTESIAN_POINT ( 'NONE',  ( 0.0000000000000000000, 1.397445597240999815, -12.42164022192000061 ) ) ;
#218 = PRODUCT_DEFINITION ( 'UNKNOWN', '', #79, #118 ) ;
#219 = DIRECTION ( 'NONE',  ( 1.000000000000000000, 0.0000000000000000000, 0.0000000000000000000 ) ) ;
#220 = ORIENTED_EDGE ( 'NONE', *, *, #299, .T. ) ;
#221 = ORIENTED_EDGE ( 'NONE', *, *, #187, .F. ) ;
#222 = APPROVAL ( #136, 'UNSPECIFIED' ) ;
#223 = ORIENTED_EDGE ( 'NONE', *, *, #274, .T. ) ;
#224 = EDGE_CURVE ( 'NONE', #316, #150, #167, .T. ) ;
#225 = AXIS2_PLACEMENT_3D ( 'NONE', #314, #133, #152 ) ;
#226 = CARTESIAN_POINT ( 'NONE',  ( -0.5173906779211999707, 1.230983007523999819E-14, 0.0000000000000000000 ) ) ;
#227 = EDGE_LOOP ( 'NONE', ( #37, #104, #309, #68 ) ) ;
#228 = CARTESIAN_POINT ( 'NONE',  ( 10.34781355842000039, 10.19983652755000136, 0.0000000000000000000 ) ) ;
#229 = CARTESIAN_POINT ( 'NONE',  ( 0.0000000000000000000, 0.9377582947916000000, -11.95381186438000043 ) ) ;
#230 = VERTEX_POINT ( 'NONE', #233 ) ;
#231 = AXIS2_PLACEMENT_3D ( 'NONE', #10, #63, #36 ) ;
#232 = DIRECTION ( 'NONE',  ( 0.0000000000000000000, 1.000000000000000000, 0.0000000000000000000 ) ) ;
#233 = CARTESIAN_POINT ( 'NONE',  ( 6.019813558425000544, 0.0000000000000000000, -12.50000000000000000 ) ) ;
#234 = EDGE_CURVE ( 'NONE', #249, #70, #178, .T. ) ;
#235 = CONICAL_SURFACE ( 'NONE', #261, 49.30127720138001735, 0.7853981633972997312 ) ;
#236 = DIRECTION ( 'NONE',  ( -1.000000000000000000, 0.0000000000000000000, 0.0000000000000000000 ) ) ;
#237 = ORIENTED_EDGE ( 'NONE', *, *, #224, .F. ) ;
#238 = PRODUCT_RELATED_PRODUCT_CATEGORY ( 'detail', '', ( #196 ) ) ;
#239 = DIRECTION ( 'NONE',  ( -0.5000000000000169864, 0.8660254037844288266, 0.0000000000000000000 ) ) ;
#240 = DIRECTION ( 'NONE',  ( -1.000000000000000000, 0.0000000000000000000, 0.0000000000000000000 ) ) ;
#241 = ORIENTED_EDGE ( 'NONE', *, *, #280, .T. ) ;
#242 = EDGE_CURVE ( 'NONE', #249, #95, #103, .T. ) ;
#243 = CARTESIAN_POINT ( 'NONE',  ( 10.34781355842000039, -10.19983652755000136, 0.0000000000000000000 ) ) ;
#244 = CC_DESIGN_APPROVAL ( #222, ( #79 ) ) ;
#245 = PERSON_AND_ORGANIZATION ( #60, #191 ) ;
#246 = EDGE_LOOP ( 'NONE', ( #223, #85, #131, #162 ) ) ;
#247 = ORIENTED_EDGE ( 'NONE', *, *, #263, .F. ) ;
#248 = COORDINATED_UNIVERSAL_TIME_OFFSET ( 5, 0, .BEHIND. ) ;
#249 = VERTEX_POINT ( 'NONE', #266 ) ;
#250 = CC_DESIGN_APPROVAL ( #59, ( #176 ) ) ;
#251 = APPROVAL_DATE_TIME ( #72, #222 ) ;
#252 = FACE_OUTER_BOUND ( 'NONE', #195, .T. ) ;
#253 = EDGE_CURVE ( 'NONE', #70, #283, #93, .T. ) ;
#254 = CARTESIAN_POINT ( 'NONE',  ( -9.056010490006000779, -0.6987227986203999874, -60.17304824805000152 ) ) ;
#255 = CARTESIAN_POINT ( 'NONE',  ( 10.34781355842000039, -10.19983652755000136, 0.0000000000000000000 ) ) ;
#256 = CARTESIAN_POINT ( 'NONE',  ( 9.019813558424999655, 1.114185941114999993E-14, 0.0000000000000000000 ) ) ;
#257 = CARTESIAN_POINT ( 'NONE',  ( -9.056010490006000779, 0.6987227986203999874, -60.17304824805000152 ) ) ;
#258 = DIRECTION ( 'NONE',  ( 0.0000000000000000000, 0.0000000000000000000, 1.000000000000000000 ) ) ;
#259 = VECTOR ( 'NONE', #74, 1000.000000000000114 ) ;
#260 = SPHERICAL_SURFACE ( 'NONE', #204, 149.7319999999999993 ) ;
#261 = AXIS2_PLACEMENT_3D ( 'NONE', #257, #22, #159 ) ;
#262 = CARTESIAN_POINT ( 'NONE',  ( 4.090387894411983360, -0.5817536365038831203, -12.49999999999999822 ) ) ;
#263 = EDGE_CURVE ( 'NONE', #147, #283, #115, .T. ) ;
#264 = CARTESIAN_POINT ( 'NONE',  ( 0.0000000000000000000, -0.1579140785594000118, -11.16056974724000028 ) ) ;
#265 = SHAPE_DEFINITION_REPRESENTATION ( #172, #158 ) ;
#266 = CARTESIAN_POINT ( 'NONE',  ( 9.019813558424999655, 12.50000000000000000, 0.0000000000000000000 ) ) ;
#267 = CC_DESIGN_APPROVAL ( #215, ( #218 ) ) ;
#268 =( LENGTH_UNIT ( ) NAMED_UNIT ( * ) SI_UNIT ( .MILLI., .METRE. ) );
#269 = CARTESIAN_POINT ( 'NONE',  ( 6.019813558425000544, 0.0000000000000000000, -12.50000000000000000 ) ) ;
#270 = AXIS2_PLACEMENT_3D ( 'NONE', #291, #211, #134 ) ;
#271 = PERSON_AND_ORGANIZATION_ROLE ( 'classification_officer' ) ;
#272 = DATE_AND_TIME ( #97, #123 ) ;
#273 = CIRCLE ( 'NONE', #145, 12.50000000000000000 ) ;
#274 = EDGE_CURVE ( 'NONE', #95, #283, #273, .T. ) ;
#275 = PERSON_AND_ORGANIZATION_ROLE ( 'creator' ) ;
#276 = ORIENTED_EDGE ( 'NONE', *, *, #110, .T. ) ;
#277 = VECTOR ( 'NONE', #239, 1000.000000000000114 ) ;
#278 = CYLINDRICAL_SURFACE ( 'NONE', #128, 12.50000000000000000 ) ;
#279 = CC_DESIGN_PERSON_AND_ORGANIZATION_ASSIGNMENT ( #173, #116, ( #218 ) ) ;
#280 = EDGE_CURVE ( 'NONE', #230, #150, #198, .T. ) ;
#281 = DIRECTION ( 'NONE',  ( 0.0000000000000000000, 0.0000000000000000000, -1.000000000000000000 ) ) ;
#282 = ORIENTED_EDGE ( 'NONE', *, *, #202, .F. ) ;
#283 = VERTEX_POINT ( 'NONE', #294 ) ;
#284 = CARTESIAN_POINT ( 'NONE',  ( 2.083783374936983179, -1.047822747154726120, -12.46097310419517790 ) ) ;
#285 = EDGE_LOOP ( 'NONE', ( #170, #304 ) ) ;
#286 = AXIS2_PLACEMENT_3D ( 'NONE', #111, #287, #183 ) ;
#287 = DIRECTION ( 'NONE',  ( -1.000000000000000000, 0.0000000000000000000, 0.0000000000000000000 ) ) ;
#288 = DIRECTION ( 'NONE',  ( 0.0000000000000000000, 1.000000000000000000, 0.0000000000000000000 ) ) ;
#289 = ADVANCED_FACE ( 'NONE', ( #24 ), #9, .T. ) ;
#290 = EDGE_CURVE ( 'NONE', #316, #147, #146, .T. ) ;
#291 = CARTESIAN_POINT ( 'NONE',  ( 10.34781355842000039, 1.097922631622000080E-14, 0.0000000000000000000 ) ) ;
#292 = DATE_TIME_ROLE ( 'creation_date' ) ;
#293 = ORIENTED_EDGE ( 'NONE', *, *, #242, .F. ) ;
#294 = CARTESIAN_POINT ( 'NONE',  ( 0.0000000000000000000, -12.50000000000000000, 0.0000000000000000000 ) ) ;
#295 = DIRECTION ( 'NONE',  ( 0.0000000000000000000, -1.000000000000000000, 0.0000000000000000000 ) ) ;
#296 = CARTESIAN_POINT ( 'NONE',  ( 0.0000000000000000000, -0.4719801807447999709, -11.47996915915999949 ) ) ;
#297 = CARTESIAN_POINT ( 'NONE',  ( 10.34781355842000039, 10.19983652755000136, 0.0000000000000000000 ) ) ;
#298 = ORIENTED_EDGE ( 'NONE', *, *, #312, .F. ) ;
#299 = EDGE_CURVE ( 'NONE', #316, #230, #311, .T. ) ;
#300 = AXIS2_PLACEMENT_3D ( 'NONE', #254, #106, #40 ) ;
#301 = DATE_TIME_ROLE ( 'classification_date' ) ;
#302 = VECTOR ( 'NONE', #236, 1000.000000000000000 ) ;
#303 = AXIS2_PLACEMENT_3D ( 'NONE', #148, #201, #39 ) ;
#304 = ORIENTED_EDGE ( 'NONE', *, *, #96, .F. ) ;
#305 = ORIENTED_EDGE ( 'NONE', *, *, #234, .T. ) ;
#306 = CC_DESIGN_PERSON_AND_ORGANIZATION_ASSIGNMENT ( #41, #271, ( #176 ) ) ;
#307 = LOCAL_TIME ( 8, 43, 13.00000000000000000, #56 ) ;
#308 = CIRCLE ( 'NONE', #135, 149.7319999999999993 ) ;
#309 = ORIENTED_EDGE ( 'NONE', *, *, #234, .F. ) ;
#310 = CARTESIAN_POINT ( 'NONE',  ( 0.0000000000000000000, 0.4719659096081000316, -11.47995464321000014 ) ) ;
#311 = CIRCLE ( 'NONE', #171, 50.00000000000002132 ) ;
#312 = EDGE_CURVE ( 'NONE', #61, #70, #83, .T. ) ;
#313 = EDGE_CURVE ( 'NONE', #38, #249, #126, .T. ) ;
#314 = CARTESIAN_POINT ( 'NONE',  ( 9.019813558424999655, 1.114185941114999993E-14, 0.0000000000000000000 ) ) ;
#315 = CARTESIAN_POINT ( 'NONE',  ( 0.0000000000000000000, 0.0000000000000000000, -11.00000000000000000 ) ) ;
#316 = VERTEX_POINT ( 'NONE', #194 ) ;
#317 = CC_DESIGN_DATE_AND_TIME_ASSIGNMENT ( #272, #292, ( #218 ) ) ;
ENDSEC;
END-ISO-10303-21;
