ISO-10303-21;
HEADER;
FILE_DESCRIPTION (( 'STEP AP203' ),
    '1' );
FILE_NAME ('Web Model 45576.STEP',
    '2017-01-31T15:17:59',
    ( '' ),
    ( '' ),
    'SwSTEP 2.0',
    'SolidWorks 2016',
    '' );
FILE_SCHEMA (( 'CONFIG_CONTROL_DESIGN' ));
ENDSEC;

DATA;
#1 = CIRCLE ( 'NONE', #69, 7.500000000000000000 ) ;
#2 = ORIENTED_EDGE ( 'NONE', *, *, #144, .F. ) ;
#3 = CC_DESIGN_PERSON_AND_ORGANIZATION_ASSIGNMENT ( #94, #164, ( #152 ) ) ;
#4 = DESIGN_CONTEXT ( 'detailed design', #175, 'design' ) ;
#5 = VECTOR ( 'NONE', #25, 1000.000000000000000 ) ;
#6 = PRODUCT ( 'Web Model 45576', 'Web Model 45576', '', ( #101 ) ) ;
#7 = DATE_AND_TIME ( #33, #119 ) ;
#8 = ORIENTED_EDGE ( 'NONE', *, *, #95, .T. ) ;
#9 = SECURITY_CLASSIFICATION ( '', '', #46 ) ;
#10 = CARTESIAN_POINT ( 'NONE',  ( 0.0000000000000000000, 0.0000000000000000000, -3.000000000000000000 ) ) ;
#11 = EDGE_LOOP ( 'NONE', ( #133, #125 ) ) ;
#12 = DIRECTION ( 'NONE',  ( 0.0000000000000000000, 0.0000000000000000000, 1.000000000000000000 ) ) ;
#13 = PERSON_AND_ORGANIZATION ( #21, #124 ) ;
#14 = CARTESIAN_POINT ( 'NONE',  ( 0.0000000000000000000, 0.0000000000000000000, 0.0000000000000000000 ) ) ;
#15 = DATE_AND_TIME ( #134, #49 ) ;
#16 = LINE ( 'NONE', #123, #5 ) ;
#17 = APPROVAL_STATUS ( 'not_yet_approved' ) ;
#18 = CC_DESIGN_PERSON_AND_ORGANIZATION_ASSIGNMENT ( #146, #89, ( #6 ) ) ;
#19 = AXIS2_PLACEMENT_3D ( 'NONE', #88, #12, #51 ) ;
#20 = PERSON_AND_ORGANIZATION ( #21, #124 ) ;
#21 = PERSON ( 'UNSPECIFIED', 'UNSPECIFIED', 'UNSPECIFIED', ('UNSPECIFIED'), ('UNSPECIFIED'), ('UNSPECIFIED') ) ;
#22 = DIRECTION ( 'NONE',  ( 1.000000000000000000, 0.0000000000000000000, 0.0000000000000000000 ) ) ;
#23 = DIRECTION ( 'NONE',  ( 0.0000000000000000000, 0.0000000000000000000, 1.000000000000000000 ) ) ;
#24 = ADVANCED_FACE ( 'NONE', ( #127 ), #65, .T. ) ;
#25 = DIRECTION ( 'NONE',  ( 0.0000000000000000000, 0.0000000000000000000, 1.000000000000000000 ) ) ;
#26 = APPLICATION_PROTOCOL_DEFINITION ( 'international standard', 'config_control_design', 1994, #86 ) ;
#27 = APPROVAL ( #142, 'UNSPECIFIED' ) ;
#28 = ORIENTED_EDGE ( 'NONE', *, *, #120, .T. ) ;
#29 = LINE ( 'NONE', #135, #148 ) ;
#30 = APPROVAL_ROLE ( '' ) ;
#31 = PRODUCT_RELATED_PRODUCT_CATEGORY ( 'detail', '', ( #6 ) ) ;
#32 = EDGE_CURVE ( 'NONE', #78, #161, #168, .T. ) ;
#33 = CALENDAR_DATE ( 2017, 31, 1 ) ;
#34 = AXIS2_PLACEMENT_3D ( 'NONE', #14, #99, #136 ) ;
#35 = FACE_OUTER_BOUND ( 'NONE', #84, .T. ) ;
#36 = CIRCLE ( 'NONE', #34, 7.500000000000000000 ) ;
#37 = SHAPE_DEFINITION_REPRESENTATION ( #41, #75 ) ;
#38 = AXIS2_PLACEMENT_3D ( 'NONE', #56, #171, #173 ) ;
#39 = CARTESIAN_POINT ( 'NONE',  ( 0.0000000000000000000, 0.0000000000000000000, -3.000000000000000000 ) ) ;
#40 = CARTESIAN_POINT ( 'NONE',  ( 7.500000000000000000, 0.0000000000000000000, -3.000000000000000000 ) ) ;
#41 = PRODUCT_DEFINITION_SHAPE ( 'NONE', 'NONE',  #166 ) ;
#42 = CARTESIAN_POINT ( 'NONE',  ( 0.0000000000000000000, 0.0000000000000000000, -3.000000000000000000 ) ) ;
#43 = CARTESIAN_POINT ( 'NONE',  ( 7.500000000000000000, 0.0000000000000000000, 0.0000000000000000000 ) ) ;
#44 =( GEOMETRIC_REPRESENTATION_CONTEXT ( 3 ) GLOBAL_UNCERTAINTY_ASSIGNED_CONTEXT ( ( #131 ) ) GLOBAL_UNIT_ASSIGNED_CONTEXT ( ( #74, #71, #96 ) ) REPRESENTATION_CONTEXT ( 'NONE', 'WORKASPACE' ) );
#45 = CIRCLE ( 'NONE', #130, 7.500000000000000000 ) ;
#46 = SECURITY_CLASSIFICATION_LEVEL ( 'unclassified' ) ;
#47 = APPROVAL ( #63, 'UNSPECIFIED' ) ;
#48 = CC_DESIGN_DATE_AND_TIME_ASSIGNMENT ( #52, #114, ( #166 ) ) ;
#49 = LOCAL_TIME ( 10, 17, 59.00000000000000000, #83 ) ;
#50 = EDGE_LOOP ( 'NONE', ( #153, #157, #104, #2 ) ) ;
#51 = DIRECTION ( 'NONE',  ( 1.000000000000000000, 0.0000000000000000000, 0.0000000000000000000 ) ) ;
#52 = DATE_AND_TIME ( #162, #165 ) ;
#53 = CLOSED_SHELL ( 'NONE', ( #57, #24, #76, #108 ) ) ;
#54 = DIRECTION ( 'NONE',  ( 0.0000000000000000000, 0.0000000000000000000, 1.000000000000000000 ) ) ;
#55 = CC_DESIGN_APPROVAL ( #47, ( #152 ) ) ;
#56 = CARTESIAN_POINT ( 'NONE',  ( 0.0000000000000000000, 0.0000000000000000000, 0.0000000000000000000 ) ) ;
#57 = ADVANCED_FACE ( 'NONE', ( #116 ), #174, .T. ) ;
#58 = AXIS2_PLACEMENT_3D ( 'NONE', #39, #98, #60 ) ;
#59 = CALENDAR_DATE ( 2017, 31, 1 ) ;
#60 = DIRECTION ( 'NONE',  ( 1.000000000000000000, 0.0000000000000000000, -0.0000000000000000000 ) ) ;
#61 = DIRECTION ( 'NONE',  ( 1.000000000000000000, 0.0000000000000000000, 0.0000000000000000000 ) ) ;
#62 = DATE_TIME_ROLE ( 'classification_date' ) ;
#63 = APPROVAL_STATUS ( 'not_yet_approved' ) ;
#64 = VERTEX_POINT ( 'NONE', #163 ) ;
#65 = CYLINDRICAL_SURFACE ( 'NONE', #138, 7.500000000000000000 ) ;
#66 = CC_DESIGN_PERSON_AND_ORGANIZATION_ASSIGNMENT ( #13, #126, ( #152 ) ) ;
#67 = EDGE_CURVE ( 'NONE', #81, #78, #16, .T. ) ;
#68 = COORDINATED_UNIVERSAL_TIME_OFFSET ( 5, 0, .BEHIND. ) ;
#69 = AXIS2_PLACEMENT_3D ( 'NONE', #72, #110, #61 ) ;
#70 = DIRECTION ( 'NONE',  ( 0.0000000000000000000, 0.0000000000000000000, 1.000000000000000000 ) ) ;
#71 =( NAMED_UNIT ( * ) PLANE_ANGLE_UNIT ( ) SI_UNIT ( $, .RADIAN. ) );
#72 = CARTESIAN_POINT ( 'NONE',  ( 0.0000000000000000000, 0.0000000000000000000, -3.000000000000000000 ) ) ;
#73 = PERSON_AND_ORGANIZATION ( #21, #124 ) ;
#74 =( LENGTH_UNIT ( ) NAMED_UNIT ( * ) SI_UNIT ( .MILLI., .METRE. ) );
#75 = ADVANCED_BREP_SHAPE_REPRESENTATION ( 'Web Model 45576', ( #147, #129 ), #44 ) ;
#76 = ADVANCED_FACE ( 'NONE', ( #35 ), #87, .F. ) ;
#77 = CC_DESIGN_APPROVAL ( #27, ( #9 ) ) ;
#78 = VERTEX_POINT ( 'NONE', #43 ) ;
#79 = APPROVAL ( #17, 'UNSPECIFIED' ) ;
#80 = DIRECTION ( 'NONE',  ( 1.000000000000000000, 0.0000000000000000000, 0.0000000000000000000 ) ) ;
#81 = VERTEX_POINT ( 'NONE', #40 ) ;
#82 = DATE_AND_TIME ( #59, #140 ) ;
#83 = COORDINATED_UNIVERSAL_TIME_OFFSET ( 5, 0, .BEHIND. ) ;
#84 = EDGE_LOOP ( 'NONE', ( #160, #90 ) ) ;
#85 = CARTESIAN_POINT ( 'NONE',  ( -7.500000000000000000, 9.184850993605147900E-016, 0.0000000000000000000 ) ) ;
#86 = APPLICATION_CONTEXT ( 'configuration controlled 3d designs of mechanical parts and assemblies' ) ;
#87 = PLANE ( 'NONE',  #58 ) ;
#88 = CARTESIAN_POINT ( 'NONE',  ( 0.0000000000000000000, 0.0000000000000000000, 0.0000000000000000000 ) ) ;
#89 = PERSON_AND_ORGANIZATION_ROLE ( 'design_owner' ) ;
#90 = ORIENTED_EDGE ( 'NONE', *, *, #169, .F. ) ;
#91 = COORDINATED_UNIVERSAL_TIME_OFFSET ( 5, 0, .BEHIND. ) ;
#92 = PERSON_AND_ORGANIZATION ( #21, #124 ) ;
#93 = CC_DESIGN_PERSON_AND_ORGANIZATION_ASSIGNMENT ( #149, #141, ( #9 ) ) ;
#94 = PERSON_AND_ORGANIZATION ( #21, #124 ) ;
#95 = EDGE_CURVE ( 'NONE', #81, #64, #45, .T. ) ;
#96 =( NAMED_UNIT ( * ) SI_UNIT ( $, .STERADIAN. ) SOLID_ANGLE_UNIT ( ) );
#97 = DIRECTION ( 'NONE',  ( 0.0000000000000000000, 0.0000000000000000000, 1.000000000000000000 ) ) ;
#98 = DIRECTION ( 'NONE',  ( 0.0000000000000000000, 0.0000000000000000000, 1.000000000000000000 ) ) ;
#99 = DIRECTION ( 'NONE',  ( 0.0000000000000000000, 0.0000000000000000000, 1.000000000000000000 ) ) ;
#100 = PERSON_AND_ORGANIZATION_ROLE ( 'creator' ) ;
#101 = MECHANICAL_CONTEXT ( 'NONE', #86, 'mechanical' ) ;
#102 = CC_DESIGN_DATE_AND_TIME_ASSIGNMENT ( #82, #62, ( #9 ) ) ;
#103 = APPROVAL_DATE_TIME ( #128, #47 ) ;
#104 = ORIENTED_EDGE ( 'NONE', *, *, #67, .T. ) ;
#105 = CC_DESIGN_APPROVAL ( #79, ( #166 ) ) ;
#106 = DIRECTION ( 'NONE',  ( 1.000000000000000000, 0.0000000000000000000, 0.0000000000000000000 ) ) ;
#107 = APPROVAL_DATE_TIME ( #15, #79 ) ;
#108 = ADVANCED_FACE ( 'NONE', ( #170 ), #137, .T. ) ;
#109 = DIRECTION ( 'NONE',  ( 1.000000000000000000, 0.0000000000000000000, 0.0000000000000000000 ) ) ;
#110 = DIRECTION ( 'NONE',  ( 0.0000000000000000000, 0.0000000000000000000, 1.000000000000000000 ) ) ;
#111 = APPROVAL_DATE_TIME ( #7, #27 ) ;
#112 = CALENDAR_DATE ( 2017, 31, 1 ) ;
#113 = ORIENTED_EDGE ( 'NONE', *, *, #32, .F. ) ;
#114 = DATE_TIME_ROLE ( 'creation_date' ) ;
#115 = APPROVAL_ROLE ( '' ) ;
#116 = FACE_OUTER_BOUND ( 'NONE', #117, .T. ) ;
#117 = EDGE_LOOP ( 'NONE', ( #8, #28, #113, #145 ) ) ;
#118 = AXIS2_PLACEMENT_3D ( 'NONE', #42, #97, #22 ) ;
#119 = LOCAL_TIME ( 10, 17, 59.00000000000000000, #91 ) ;
#120 = EDGE_CURVE ( 'NONE', #64, #161, #29, .T. ) ;
#121 = DIRECTION ( 'NONE',  ( 0.0000000000000000000, 0.0000000000000000000, 1.000000000000000000 ) ) ;
#122 = APPROVAL_PERSON_ORGANIZATION ( #20, #27, #156 ) ;
#123 = CARTESIAN_POINT ( 'NONE',  ( 7.500000000000000000, 0.0000000000000000000, -3.000000000000000000 ) ) ;
#124 = ORGANIZATION ( 'UNSPECIFIED', 'UNSPECIFIED', '' ) ;
#125 = ORIENTED_EDGE ( 'NONE', *, *, #144, .T. ) ;
#126 = PERSON_AND_ORGANIZATION_ROLE ( 'design_supplier' ) ;
#127 = FACE_OUTER_BOUND ( 'NONE', #50, .T. ) ;
#128 = DATE_AND_TIME ( #112, #155 ) ;
#129 = AXIS2_PLACEMENT_3D ( 'NONE', #154, #121, #80 ) ;
#130 = AXIS2_PLACEMENT_3D ( 'NONE', #172, #54, #109 ) ;
#131 = UNCERTAINTY_MEASURE_WITH_UNIT (LENGTH_MEASURE( 1.000000000000000100E-005 ), #74, 'distance_accuracy_value', 'NONE');
#132 = PERSON_AND_ORGANIZATION ( #21, #124 ) ;
#133 = ORIENTED_EDGE ( 'NONE', *, *, #32, .T. ) ;
#134 = CALENDAR_DATE ( 2017, 31, 1 ) ;
#135 = CARTESIAN_POINT ( 'NONE',  ( -7.500000000000000000, 9.184850993605147900E-016, -3.000000000000000000 ) ) ;
#136 = DIRECTION ( 'NONE',  ( 1.000000000000000000, 0.0000000000000000000, 0.0000000000000000000 ) ) ;
#137 = PLANE ( 'NONE',  #38 ) ;
#138 = AXIS2_PLACEMENT_3D ( 'NONE', #10, #70, #106 ) ;
#139 = APPLICATION_PROTOCOL_DEFINITION ( 'international standard', 'config_control_design', 1994, #175 ) ;
#140 = LOCAL_TIME ( 10, 17, 59.00000000000000000, #68 ) ;
#141 = PERSON_AND_ORGANIZATION_ROLE ( 'classification_officer' ) ;
#142 = APPROVAL_STATUS ( 'not_yet_approved' ) ;
#143 = CC_DESIGN_PERSON_AND_ORGANIZATION_ASSIGNMENT ( #73, #100, ( #166 ) ) ;
#144 = EDGE_CURVE ( 'NONE', #161, #78, #36, .T. ) ;
#145 = ORIENTED_EDGE ( 'NONE', *, *, #67, .F. ) ;
#146 = PERSON_AND_ORGANIZATION ( #21, #124 ) ;
#147 = MANIFOLD_SOLID_BREP ( 'Extrude1', #53 ) ;
#148 = VECTOR ( 'NONE', #23, 1000.000000000000000 ) ;
#149 = PERSON_AND_ORGANIZATION ( #21, #124 ) ;
#150 = COORDINATED_UNIVERSAL_TIME_OFFSET ( 5, 0, .BEHIND. ) ;
#151 = CC_DESIGN_SECURITY_CLASSIFICATION ( #9, ( #152 ) ) ;
#152 = PRODUCT_DEFINITION_FORMATION_WITH_SPECIFIED_SOURCE ( 'ANY', '', #6, .NOT_KNOWN. ) ;
#153 = ORIENTED_EDGE ( 'NONE', *, *, #120, .F. ) ;
#154 = CARTESIAN_POINT ( 'NONE',  ( 0.0000000000000000000, 0.0000000000000000000, 0.0000000000000000000 ) ) ;
#155 = LOCAL_TIME ( 10, 17, 59.00000000000000000, #150 ) ;
#156 = APPROVAL_ROLE ( '' ) ;
#157 = ORIENTED_EDGE ( 'NONE', *, *, #169, .T. ) ;
#158 = COORDINATED_UNIVERSAL_TIME_OFFSET ( 5, 0, .BEHIND. ) ;
#159 = APPROVAL_PERSON_ORGANIZATION ( #92, #47, #30 ) ;
#160 = ORIENTED_EDGE ( 'NONE', *, *, #95, .F. ) ;
#161 = VERTEX_POINT ( 'NONE', #85 ) ;
#162 = CALENDAR_DATE ( 2017, 31, 1 ) ;
#163 = CARTESIAN_POINT ( 'NONE',  ( -7.500000000000000000, 9.184850993605147900E-016, -3.000000000000000000 ) ) ;
#164 = PERSON_AND_ORGANIZATION_ROLE ( 'creator' ) ;
#165 = LOCAL_TIME ( 10, 17, 59.00000000000000000, #158 ) ;
#166 = PRODUCT_DEFINITION ( 'UNKNOWN', '', #152, #4 ) ;
#167 = APPROVAL_PERSON_ORGANIZATION ( #132, #79, #115 ) ;
#168 = CIRCLE ( 'NONE', #19, 7.500000000000000000 ) ;
#169 = EDGE_CURVE ( 'NONE', #64, #81, #1, .T. ) ;
#170 = FACE_OUTER_BOUND ( 'NONE', #11, .T. ) ;
#171 = DIRECTION ( 'NONE',  ( 0.0000000000000000000, 0.0000000000000000000, 1.000000000000000000 ) ) ;
#172 = CARTESIAN_POINT ( 'NONE',  ( 0.0000000000000000000, 0.0000000000000000000, -3.000000000000000000 ) ) ;
#173 = DIRECTION ( 'NONE',  ( 1.000000000000000000, 0.0000000000000000000, -0.0000000000000000000 ) ) ;
#174 = CYLINDRICAL_SURFACE ( 'NONE', #118, 7.500000000000000000 ) ;
#175 = APPLICATION_CONTEXT ( 'configuration controlled 3d designs of mechanical parts and assemblies' ) ;
ENDSEC;
END-ISO-10303-21;
