ISO-10303-21;
HEADER;
FILE_DESCRIPTION (( 'STEP AP203' ),
    '1' );
FILE_NAME ('Web Model 63222.STEP',
    '2017-01-31T18:46:04',
    ( '' ),
    ( '' ),
    'SwSTEP 2.0',
    'SolidWorks 2016',
    '' );
FILE_SCHEMA (( 'CONFIG_CONTROL_DESIGN' ));
ENDSEC;

DATA;
#1 = APPROVAL_DATE_TIME ( #169, #3 ) ;
#2 = DIRECTION ( 'NONE',  ( 0.0000000000000000000, 0.0000000000000000000, 1.000000000000000000 ) ) ;
#3 = APPROVAL ( #167, 'UNSPECIFIED' ) ;
#4 = VECTOR ( 'NONE', #121, 1000.000000000000000 ) ;
#5 = ORIENTED_EDGE ( 'NONE', *, *, #123, .F. ) ;
#6 = PERSON_AND_ORGANIZATION ( #162, #26 ) ;
#7 = DIRECTION ( 'NONE',  ( -0.0000000000000000000, -0.0000000000000000000, -1.000000000000000000 ) ) ;
#8 = AXIS2_PLACEMENT_3D ( 'NONE', #35, #2, #49 ) ;
#9 = CYLINDRICAL_SURFACE ( 'NONE', #52, 2.500000000000000400 ) ;
#10 = CARTESIAN_POINT ( 'NONE',  ( 2.500000000000000400, 3.061616997868383600E-016, 1.600000000000000100 ) ) ;
#11 = CLOSED_SHELL ( 'NONE', ( #142, #127, #15, #66 ) ) ;
#12 = APPROVAL_STATUS ( 'not_yet_approved' ) ;
#13 = EDGE_CURVE ( 'NONE', #171, #80, #101, .T. ) ;
#14 = PERSON_AND_ORGANIZATION ( #162, #26 ) ;
#15 = ADVANCED_FACE ( 'NONE', ( #109 ), #32, .T. ) ;
#16 = AXIS2_PLACEMENT_3D ( 'NONE', #31, #7, #18 ) ;
#17 = CALENDAR_DATE ( 2017, 31, 1 ) ;
#18 = DIRECTION ( 'NONE',  ( -1.000000000000000000, 0.0000000000000000000, 0.0000000000000000000 ) ) ;
#19 = CARTESIAN_POINT ( 'NONE',  ( 2.500000000000000400, 3.061616997868383600E-016, 0.0000000000000000000 ) ) ;
#20 = MECHANICAL_CONTEXT ( 'NONE', #64, 'mechanical' ) ;
#21 = DATE_AND_TIME ( #168, #57 ) ;
#22 = CIRCLE ( 'NONE', #69, 2.500000000000000400 ) ;
#23 = CC_DESIGN_APPROVAL ( #3, ( #156 ) ) ;
#24 = ORIENTED_EDGE ( 'NONE', *, *, #163, .F. ) ;
#25 = COORDINATED_UNIVERSAL_TIME_OFFSET ( 5, 0, .BEHIND. ) ;
#26 = ORGANIZATION ( 'UNSPECIFIED', 'UNSPECIFIED', '' ) ;
#27 = LOCAL_TIME ( 13, 46, 4.000000000000000000, #159 ) ;
#28 = DIRECTION ( 'NONE',  ( -1.000000000000000000, 0.0000000000000000000, 0.0000000000000000000 ) ) ;
#29 = CARTESIAN_POINT ( 'NONE',  ( 0.0000000000000000000, 0.0000000000000000000, 0.0000000000000000000 ) ) ;
#30 = CARTESIAN_POINT ( 'NONE',  ( 0.0000000000000000000, 0.0000000000000000000, 1.600000000000000100 ) ) ;
#31 = CARTESIAN_POINT ( 'NONE',  ( 0.0000000000000000000, 0.0000000000000000000, 1.600000000000000100 ) ) ;
#32 = PLANE ( 'NONE',  #97 ) ;
#33 = CC_DESIGN_PERSON_AND_ORGANIZATION_ASSIGNMENT ( #141, #75, ( #72 ) ) ;
#34 = DIRECTION ( 'NONE',  ( 0.0000000000000000000, 0.0000000000000000000, 1.000000000000000000 ) ) ;
#35 = CARTESIAN_POINT ( 'NONE',  ( 0.0000000000000000000, 0.0000000000000000000, 0.0000000000000000000 ) ) ;
#36 = APPLICATION_PROTOCOL_DEFINITION ( 'international standard', 'config_control_design', 1994, #154 ) ;
#37 = SECURITY_CLASSIFICATION_LEVEL ( 'unclassified' ) ;
#38 = LOCAL_TIME ( 13, 46, 4.000000000000000000, #25 ) ;
#39 = CC_DESIGN_DATE_AND_TIME_ASSIGNMENT ( #59, #78, ( #156 ) ) ;
#40 = ORIENTED_EDGE ( 'NONE', *, *, #93, .F. ) ;
#41 = SHAPE_DEFINITION_REPRESENTATION ( #112, #53 ) ;
#42 = DIRECTION ( 'NONE',  ( 1.000000000000000000, 0.0000000000000000000, 0.0000000000000000000 ) ) ;
#43 = UNCERTAINTY_MEASURE_WITH_UNIT (LENGTH_MEASURE( 1.000000000000000100E-005 ), #131, 'distance_accuracy_value', 'NONE');
#44 = FACE_OUTER_BOUND ( 'NONE', #45, .T. ) ;
#45 = EDGE_LOOP ( 'NONE', ( #40, #89, #147, #83 ) ) ;
#46 = DESIGN_CONTEXT ( 'detailed design', #154, 'design' ) ;
#47 = APPROVAL_STATUS ( 'not_yet_approved' ) ;
#48 = DIRECTION ( 'NONE',  ( 1.000000000000000000, 0.0000000000000000000, 0.0000000000000000000 ) ) ;
#49 = DIRECTION ( 'NONE',  ( 1.000000000000000000, 0.0000000000000000000, -0.0000000000000000000 ) ) ;
#50 = CALENDAR_DATE ( 2017, 31, 1 ) ;
#51 = CIRCLE ( 'NONE', #143, 2.500000000000000400 ) ;
#52 = AXIS2_PLACEMENT_3D ( 'NONE', #130, #110, #28 ) ;
#53 = ADVANCED_BREP_SHAPE_REPRESENTATION ( 'Web Model 63222', ( #132, #107 ), #88 ) ;
#54 = FACE_OUTER_BOUND ( 'NONE', #174, .T. ) ;
#55 = CARTESIAN_POINT ( 'NONE',  ( 0.0000000000000000000, 0.0000000000000000000, 0.0000000000000000000 ) ) ;
#56 = ORIENTED_EDGE ( 'NONE', *, *, #145, .F. ) ;
#57 = LOCAL_TIME ( 13, 46, 4.000000000000000000, #91 ) ;
#58 = CIRCLE ( 'NONE', #61, 2.500000000000000400 ) ;
#59 = DATE_AND_TIME ( #124, #164 ) ;
#60 = DIRECTION ( 'NONE',  ( 0.0000000000000000000, 0.0000000000000000000, 1.000000000000000000 ) ) ;
#61 = AXIS2_PLACEMENT_3D ( 'NONE', #118, #152, #95 ) ;
#62 = PERSON_AND_ORGANIZATION_ROLE ( 'creator' ) ;
#63 = CARTESIAN_POINT ( 'NONE',  ( 0.0000000000000000000, 0.0000000000000000000, 1.600000000000000100 ) ) ;
#64 = APPLICATION_CONTEXT ( 'configuration controlled 3d designs of mechanical parts and assemblies' ) ;
#65 = APPROVAL ( #47, 'UNSPECIFIED' ) ;
#66 = ADVANCED_FACE ( 'NONE', ( #129 ), #76, .F. ) ;
#67 = ORIENTED_EDGE ( 'NONE', *, *, #163, .T. ) ;
#68 = DATE_AND_TIME ( #17, #157 ) ;
#69 = AXIS2_PLACEMENT_3D ( 'NONE', #30, #85, #42 ) ;
#70 = LINE ( 'NONE', #10, #84 ) ;
#71 = ORIENTED_EDGE ( 'NONE', *, *, #106, .T. ) ;
#72 = PRODUCT ( 'Web Model 63222', 'Web Model 63222', '', ( #20 ) ) ;
#73 = CC_DESIGN_PERSON_AND_ORGANIZATION_ASSIGNMENT ( #79, #117, ( #120 ) ) ;
#74 = PERSON_AND_ORGANIZATION ( #162, #26 ) ;
#75 = PERSON_AND_ORGANIZATION_ROLE ( 'design_owner' ) ;
#76 = PLANE ( 'NONE',  #8 ) ;
#77 = ORIENTED_EDGE ( 'NONE', *, *, #93, .T. ) ;
#78 = DATE_TIME_ROLE ( 'classification_date' ) ;
#79 = PERSON_AND_ORGANIZATION ( #162, #26 ) ;
#80 = VERTEX_POINT ( 'NONE', #99 ) ;
#81 = CC_DESIGN_PERSON_AND_ORGANIZATION_ASSIGNMENT ( #14, #122, ( #120 ) ) ;
#82 = PERSON_AND_ORGANIZATION ( #162, #26 ) ;
#83 = ORIENTED_EDGE ( 'NONE', *, *, #145, .T. ) ;
#84 = VECTOR ( 'NONE', #165, 1000.000000000000000 ) ;
#85 = DIRECTION ( 'NONE',  ( 0.0000000000000000000, 0.0000000000000000000, 1.000000000000000000 ) ) ;
#86 = APPROVAL_ROLE ( '' ) ;
#87 = PERSON_AND_ORGANIZATION ( #162, #26 ) ;
#88 =( GEOMETRIC_REPRESENTATION_CONTEXT ( 3 ) GLOBAL_UNCERTAINTY_ASSIGNED_CONTEXT ( ( #43 ) ) GLOBAL_UNIT_ASSIGNED_CONTEXT ( ( #131, #160, #115 ) ) REPRESENTATION_CONTEXT ( 'NONE', 'WORKASPACE' ) );
#89 = ORIENTED_EDGE ( 'NONE', *, *, #106, .F. ) ;
#90 = CC_DESIGN_SECURITY_CLASSIFICATION ( #156, ( #120 ) ) ;
#91 = COORDINATED_UNIVERSAL_TIME_OFFSET ( 5, 0, .BEHIND. ) ;
#92 = VERTEX_POINT ( 'NONE', #19 ) ;
#93 = EDGE_CURVE ( 'NONE', #126, #92, #70, .T. ) ;
#94 = DIRECTION ( 'NONE',  ( 0.0000000000000000000, 0.0000000000000000000, 1.000000000000000000 ) ) ;
#95 = DIRECTION ( 'NONE',  ( 1.000000000000000000, 0.0000000000000000000, 0.0000000000000000000 ) ) ;
#96 = PERSON_AND_ORGANIZATION ( #162, #26 ) ;
#97 = AXIS2_PLACEMENT_3D ( 'NONE', #63, #60, #155 ) ;
#98 = DATE_TIME_ROLE ( 'creation_date' ) ;
#99 = CARTESIAN_POINT ( 'NONE',  ( -2.500000000000000400, 0.0000000000000000000, 0.0000000000000000000 ) ) ;
#100 = DIRECTION ( 'NONE',  ( 0.0000000000000000000, 0.0000000000000000000, 1.000000000000000000 ) ) ;
#101 = LINE ( 'NONE', #136, #4 ) ;
#102 = APPROVAL_ROLE ( '' ) ;
#103 = APPROVAL_PERSON_ORGANIZATION ( #87, #146, #137 ) ;
#104 = CC_DESIGN_PERSON_AND_ORGANIZATION_ASSIGNMENT ( #82, #62, ( #125 ) ) ;
#105 = EDGE_LOOP ( 'NONE', ( #56, #24 ) ) ;
#106 = EDGE_CURVE ( 'NONE', #171, #126, #58, .T. ) ;
#107 = AXIS2_PLACEMENT_3D ( 'NONE', #150, #34, #48 ) ;
#108 = APPROVAL_DATE_TIME ( #21, #65 ) ;
#109 = FACE_OUTER_BOUND ( 'NONE', #158, .T. ) ;
#110 = DIRECTION ( 'NONE',  ( -0.0000000000000000000, -0.0000000000000000000, -1.000000000000000000 ) ) ;
#111 = APPROVAL_PERSON_ORGANIZATION ( #96, #3, #102 ) ;
#112 = PRODUCT_DEFINITION_SHAPE ( 'NONE', 'NONE',  #125 ) ;
#113 = DIRECTION ( 'NONE',  ( 1.000000000000000000, 0.0000000000000000000, 0.0000000000000000000 ) ) ;
#114 = APPROVAL_DATE_TIME ( #68, #146 ) ;
#115 =( NAMED_UNIT ( * ) SI_UNIT ( $, .STERADIAN. ) SOLID_ANGLE_UNIT ( ) );
#116 = DIRECTION ( 'NONE',  ( 1.000000000000000000, 0.0000000000000000000, 0.0000000000000000000 ) ) ;
#117 = PERSON_AND_ORGANIZATION_ROLE ( 'creator' ) ;
#118 = CARTESIAN_POINT ( 'NONE',  ( 0.0000000000000000000, 0.0000000000000000000, 1.600000000000000100 ) ) ;
#119 = CALENDAR_DATE ( 2017, 31, 1 ) ;
#120 = PRODUCT_DEFINITION_FORMATION_WITH_SPECIFIED_SOURCE ( 'ANY', '', #72, .NOT_KNOWN. ) ;
#121 = DIRECTION ( 'NONE',  ( -0.0000000000000000000, -0.0000000000000000000, -1.000000000000000000 ) ) ;
#122 = PERSON_AND_ORGANIZATION_ROLE ( 'design_supplier' ) ;
#123 = EDGE_CURVE ( 'NONE', #126, #171, #22, .T. ) ;
#124 = CALENDAR_DATE ( 2017, 31, 1 ) ;
#125 = PRODUCT_DEFINITION ( 'UNKNOWN', '', #120, #46 ) ;
#126 = VERTEX_POINT ( 'NONE', #149 ) ;
#127 = ADVANCED_FACE ( 'NONE', ( #44 ), #172, .T. ) ;
#128 = COORDINATED_UNIVERSAL_TIME_OFFSET ( 5, 0, .BEHIND. ) ;
#129 = FACE_OUTER_BOUND ( 'NONE', #105, .T. ) ;
#130 = CARTESIAN_POINT ( 'NONE',  ( 0.0000000000000000000, 0.0000000000000000000, 1.600000000000000100 ) ) ;
#131 =( LENGTH_UNIT ( ) NAMED_UNIT ( * ) SI_UNIT ( .MILLI., .METRE. ) );
#132 = MANIFOLD_SOLID_BREP ( 'Extrude1', #11 ) ;
#133 = ORIENTED_EDGE ( 'NONE', *, *, #13, .F. ) ;
#134 = CIRCLE ( 'NONE', #135, 2.500000000000000400 ) ;
#135 = AXIS2_PLACEMENT_3D ( 'NONE', #55, #100, #116 ) ;
#136 = CARTESIAN_POINT ( 'NONE',  ( -2.500000000000000400, 0.0000000000000000000, 1.600000000000000100 ) ) ;
#137 = APPROVAL_ROLE ( '' ) ;
#138 = APPLICATION_PROTOCOL_DEFINITION ( 'international standard', 'config_control_design', 1994, #64 ) ;
#139 = PERSON_AND_ORGANIZATION_ROLE ( 'classification_officer' ) ;
#140 = APPROVAL_PERSON_ORGANIZATION ( #6, #65, #86 ) ;
#141 = PERSON_AND_ORGANIZATION ( #162, #26 ) ;
#142 = ADVANCED_FACE ( 'NONE', ( #54 ), #9, .T. ) ;
#143 = AXIS2_PLACEMENT_3D ( 'NONE', #29, #94, #113 ) ;
#144 = PRODUCT_RELATED_PRODUCT_CATEGORY ( 'detail', '', ( #72 ) ) ;
#145 = EDGE_CURVE ( 'NONE', #80, #92, #51, .T. ) ;
#146 = APPROVAL ( #12, 'UNSPECIFIED' ) ;
#147 = ORIENTED_EDGE ( 'NONE', *, *, #13, .T. ) ;
#148 = CARTESIAN_POINT ( 'NONE',  ( -2.500000000000000400, 0.0000000000000000000, 1.600000000000000100 ) ) ;
#149 = CARTESIAN_POINT ( 'NONE',  ( 2.500000000000000400, 3.061616997868383600E-016, 1.600000000000000100 ) ) ;
#150 = CARTESIAN_POINT ( 'NONE',  ( 0.0000000000000000000, 0.0000000000000000000, 0.0000000000000000000 ) ) ;
#151 = COORDINATED_UNIVERSAL_TIME_OFFSET ( 5, 0, .BEHIND. ) ;
#152 = DIRECTION ( 'NONE',  ( 0.0000000000000000000, 0.0000000000000000000, 1.000000000000000000 ) ) ;
#153 = ORIENTED_EDGE ( 'NONE', *, *, #123, .T. ) ;
#154 = APPLICATION_CONTEXT ( 'configuration controlled 3d designs of mechanical parts and assemblies' ) ;
#155 = DIRECTION ( 'NONE',  ( 1.000000000000000000, 0.0000000000000000000, -0.0000000000000000000 ) ) ;
#156 = SECURITY_CLASSIFICATION ( '', '', #37 ) ;
#157 = LOCAL_TIME ( 13, 46, 4.000000000000000000, #151 ) ;
#158 = EDGE_LOOP ( 'NONE', ( #71, #153 ) ) ;
#159 = COORDINATED_UNIVERSAL_TIME_OFFSET ( 5, 0, .BEHIND. ) ;
#160 =( NAMED_UNIT ( * ) PLANE_ANGLE_UNIT ( ) SI_UNIT ( $, .RADIAN. ) );
#161 = CC_DESIGN_DATE_AND_TIME_ASSIGNMENT ( #175, #98, ( #125 ) ) ;
#162 = PERSON ( 'UNSPECIFIED', 'UNSPECIFIED', 'UNSPECIFIED', ('UNSPECIFIED'), ('UNSPECIFIED'), ('UNSPECIFIED') ) ;
#163 = EDGE_CURVE ( 'NONE', #92, #80, #134, .T. ) ;
#164 = LOCAL_TIME ( 13, 46, 4.000000000000000000, #128 ) ;
#165 = DIRECTION ( 'NONE',  ( -0.0000000000000000000, -0.0000000000000000000, -1.000000000000000000 ) ) ;
#166 = CC_DESIGN_PERSON_AND_ORGANIZATION_ASSIGNMENT ( #74, #139, ( #156 ) ) ;
#167 = APPROVAL_STATUS ( 'not_yet_approved' ) ;
#168 = CALENDAR_DATE ( 2017, 31, 1 ) ;
#169 = DATE_AND_TIME ( #119, #27 ) ;
#170 = CC_DESIGN_APPROVAL ( #146, ( #125 ) ) ;
#171 = VERTEX_POINT ( 'NONE', #148 ) ;
#172 = CYLINDRICAL_SURFACE ( 'NONE', #16, 2.500000000000000400 ) ;
#173 = CC_DESIGN_APPROVAL ( #65, ( #120 ) ) ;
#174 = EDGE_LOOP ( 'NONE', ( #5, #77, #67, #133 ) ) ;
#175 = DATE_AND_TIME ( #50, #38 ) ;
ENDSEC;
END-ISO-10303-21;
