ISO-10303-21;
HEADER;
FILE_DESCRIPTION (( 'STEP AP203' ),
    '1' );
FILE_NAME ('Web Model 11857_11860.step',
    '2019-01-10T19:38:41',
    ( '' ),
    ( '' ),
    'SwSTEP 2.0',
    'SolidWorks 2016',
    '' );
FILE_SCHEMA (( 'CONFIG_CONTROL_DESIGN' ));
ENDSEC;

DATA;
#1 = ORIENTED_EDGE ( 'NONE', *, *, #114, .T. ) ;
#2 = AXIS2_PLACEMENT_3D ( 'NONE', #266, #224, #81 ) ;
#3 = COORDINATED_UNIVERSAL_TIME_OFFSET ( 5, 0, .BEHIND. ) ;
#4 = CARTESIAN_POINT ( 'NONE',  ( -3.750000000000006700, 7.654042494670957800E-015, -62.50000000000000000 ) ) ;
#5 = EDGE_LOOP ( 'NONE', ( #242, #171, #33, #210 ) ) ;
#6 = CARTESIAN_POINT ( 'NONE',  ( -3.750000000000006700, 7.654042494670957800E-015, 62.50000000000000000 ) ) ;
#7 = DIRECTION ( 'NONE',  ( 1.000000000000000000, -0.0000000000000000000, -0.0000000000000000000 ) ) ;
#8 = ORIENTED_EDGE ( 'NONE', *, *, #272, .T. ) ;
#9 = DIRECTION ( 'NONE',  ( 0.0000000000000000000, 0.0000000000000000000, -1.000000000000000000 ) ) ;
#10 = APPROVAL_DATE_TIME ( #29, #30 ) ;
#11 = ORIENTED_EDGE ( 'NONE', *, *, #114, .F. ) ;
#12 = PERSON_AND_ORGANIZATION ( #270, #138 ) ;
#13 = AXIS2_PLACEMENT_3D ( 'NONE', #234, #136, #274 ) ;
#14 = DIRECTION ( 'NONE',  ( 0.0000000000000000000, 0.0000000000000000000, -1.000000000000000000 ) ) ;
#15 = DIRECTION ( 'NONE',  ( -1.000000000000000000, 0.0000000000000000000, 0.0000000000000000000 ) ) ;
#16 = CARTESIAN_POINT ( 'NONE',  ( 4.000000000000000000, 7.623426324692267700E-015, -62.24999999999994300 ) ) ;
#17 = CALENDAR_DATE ( 2019, 10, 1 ) ;
#18 = FACE_OUTER_BOUND ( 'NONE', #98, .T. ) ;
#19 = EDGE_LOOP ( 'NONE', ( #58, #247 ) ) ;
#20 = PERSON_AND_ORGANIZATION_ROLE ( 'design_supplier' ) ;
#21 = SECURITY_CLASSIFICATION_LEVEL ( 'unclassified' ) ;
#22 = CIRCLE ( 'NONE', #215, 62.50000000000000000 ) ;
#23 = LINE ( 'NONE', #124, #197 ) ;
#24 = CARTESIAN_POINT ( 'NONE',  ( -4.000000000000000000, 7.638734409681615900E-015, 62.25000000000000000 ) ) ;
#25 = ORIENTED_EDGE ( 'NONE', *, *, #127, .F. ) ;
#26 = CYLINDRICAL_SURFACE ( 'NONE', #252, 62.50000000000000000 ) ;
#27 = CARTESIAN_POINT ( 'NONE',  ( -4.000000000000000000, 0.0000000000000000000, -62.25000000000000000 ) ) ;
#28 = DIRECTION ( 'NONE',  ( 0.0000000000000000000, 0.0000000000000000000, -1.000000000000000000 ) ) ;
#29 = DATE_AND_TIME ( #264, #151 ) ;
#30 = APPROVAL ( #148, 'UNSPECIFIED' ) ;
#31 = VECTOR ( 'NONE', #230, 1000.000000000000000 ) ;
#32 = CARTESIAN_POINT ( 'NONE',  ( 4.000000000000000000, 0.0000000000000000000, 0.0000000000000000000 ) ) ;
#33 = ORIENTED_EDGE ( 'NONE', *, *, #259, .T. ) ;
#34 = APPROVAL_DATE_TIME ( #228, #222 ) ;
#35 = AXIS2_PLACEMENT_3D ( 'NONE', #195, #78, #219 ) ;
#36 = ORIENTED_EDGE ( 'NONE', *, *, #191, .T. ) ;
#37 = DIRECTION ( 'NONE',  ( 0.0000000000000000000, 0.0000000000000000000, -1.000000000000000000 ) ) ;
#38 = APPLICATION_CONTEXT ( 'configuration controlled 3d designs of mechanical parts and assemblies' ) ;
#39 = DIRECTION ( 'NONE',  ( 0.0000000000000000000, 0.0000000000000000000, 1.000000000000000000 ) ) ;
#40 = COORDINATED_UNIVERSAL_TIME_OFFSET ( 5, 0, .BEHIND. ) ;
#41 = DIRECTION ( 'NONE',  ( -1.000000000000000000, 0.0000000000000000000, 0.0000000000000000000 ) ) ;
#42 = LINE ( 'NONE', #6, #220 ) ;
#43 = CLOSED_SHELL ( 'NONE', ( #233, #57, #94, #60, #161, #47, #144, #213 ) ) ;
#44 = MECHANICAL_CONTEXT ( 'NONE', #38, 'mechanical' ) ;
#45 = DATE_TIME_ROLE ( 'classification_date' ) ;
#46 = CIRCLE ( 'NONE', #90, 62.25000000000000000 ) ;
#47 = ADVANCED_FACE ( 'NONE', ( #139 ), #194, .F. ) ;
#48 = APPROVAL ( #101, 'UNSPECIFIED' ) ;
#49 = ORIENTED_EDGE ( 'NONE', *, *, #84, .T. ) ;
#50 = DIRECTION ( 'NONE',  ( 0.0000000000000000000, 0.0000000000000000000, -1.000000000000000000 ) ) ;
#51 = DIRECTION ( 'NONE',  ( 0.7071067811865378000, 8.659560562355053700E-017, 0.7071067811865573400 ) ) ;
#52 = DIRECTION ( 'NONE',  ( -1.000000000000000000, 0.0000000000000000000, 0.0000000000000000000 ) ) ;
#53 = FACE_OUTER_BOUND ( 'NONE', #5, .T. ) ;
#54 = EDGE_LOOP ( 'NONE', ( #198, #275, #115, #49 ) ) ;
#55 =( GEOMETRIC_REPRESENTATION_CONTEXT ( 3 ) GLOBAL_UNCERTAINTY_ASSIGNED_CONTEXT ( ( #71 ) ) GLOBAL_UNIT_ASSIGNED_CONTEXT ( ( #256, #95, #162 ) ) REPRESENTATION_CONTEXT ( 'NONE', 'WORKASPACE' ) );
#56 = EDGE_LOOP ( 'NONE', ( #181, #211, #251, #134 ) ) ;
#57 = ADVANCED_FACE ( 'NONE', ( #18 ), #271, .T. ) ;
#58 = ORIENTED_EDGE ( 'NONE', *, *, #127, .T. ) ;
#59 = VERTEX_POINT ( 'NONE', #216 ) ;
#60 = ADVANCED_FACE ( 'NONE', ( #158 ), #205, .T. ) ;
#61 = CC_DESIGN_SECURITY_CLASSIFICATION ( #254, ( #175 ) ) ;
#62 = EDGE_CURVE ( 'NONE', #178, #77, #23, .T. ) ;
#63 = APPLICATION_PROTOCOL_DEFINITION ( 'international standard', 'config_control_design', 1994, #38 ) ;
#64 = VECTOR ( 'NONE', #176, 1000.000000000000000 ) ;
#65 = VERTEX_POINT ( 'NONE', #24 ) ;
#66 = AXIS2_PLACEMENT_3D ( 'NONE', #163, #39, #258 ) ;
#67 = CARTESIAN_POINT ( 'NONE',  ( 4.000000000000000000, 0.0000000000000000000, 0.0000000000000000000 ) ) ;
#68 = DIRECTION ( 'NONE',  ( 0.0000000000000000000, 0.0000000000000000000, -1.000000000000000000 ) ) ;
#69 = CARTESIAN_POINT ( 'NONE',  ( 4.000000000000000000, 0.0000000000000000000, 0.0000000000000000000 ) ) ;
#70 = PERSON_AND_ORGANIZATION ( #270, #138 ) ;
#71 = UNCERTAINTY_MEASURE_WITH_UNIT (LENGTH_MEASURE( 1.000000000000000100E-005 ), #256, 'distance_accuracy_value', 'NONE');
#72 = CC_DESIGN_PERSON_AND_ORGANIZATION_ASSIGNMENT ( #200, #167, ( #184 ) ) ;
#73 = DIRECTION ( 'NONE',  ( 0.0000000000000000000, 0.0000000000000000000, -1.000000000000000000 ) ) ;
#74 = APPROVAL_DATE_TIME ( #109, #48 ) ;
#75 = AXIS2_PLACEMENT_3D ( 'NONE', #155, #265, #73 ) ;
#76 = CARTESIAN_POINT ( 'NONE',  ( 3.749999999999937400, 0.0000000000000000000, 0.0000000000000000000 ) ) ;
#77 = VERTEX_POINT ( 'NONE', #4 ) ;
#78 = DIRECTION ( 'NONE',  ( 1.000000000000000000, 0.0000000000000000000, 0.0000000000000000000 ) ) ;
#79 = DIRECTION ( 'NONE',  ( 0.0000000000000000000, 0.0000000000000000000, -1.000000000000000000 ) ) ;
#80 = COORDINATED_UNIVERSAL_TIME_OFFSET ( 5, 0, .BEHIND. ) ;
#81 = DIRECTION ( 'NONE',  ( 0.0000000000000000000, 0.0000000000000000000, -1.000000000000000000 ) ) ;
#82 = CARTESIAN_POINT ( 'NONE',  ( 4.000000000000000000, 0.0000000000000000000, 62.50000000000000000 ) ) ;
#83 = VERTEX_POINT ( 'NONE', #27 ) ;
#84 = EDGE_CURVE ( 'NONE', #129, #77, #226, .T. ) ;
#85 = LOCAL_TIME ( 14, 38, 41.00000000000000000, #80 ) ;
#86 = AXIS2_PLACEMENT_3D ( 'NONE', #32, #268, #28 ) ;
#87 = PERSON_AND_ORGANIZATION ( #270, #138 ) ;
#88 = LINE ( 'NONE', #82, #64 ) ;
#89 = ORIENTED_EDGE ( 'NONE', *, *, #106, .T. ) ;
#90 = AXIS2_PLACEMENT_3D ( 'NONE', #185, #232, #37 ) ;
#91 = COORDINATED_UNIVERSAL_TIME_OFFSET ( 5, 0, .BEHIND. ) ;
#92 = CARTESIAN_POINT ( 'NONE',  ( 4.000000000000000000, 0.0000000000000000000, 0.0000000000000000000 ) ) ;
#93 = AXIS2_PLACEMENT_3D ( 'NONE', #67, #192, #153 ) ;
#94 = ADVANCED_FACE ( 'NONE', ( #53 ), #26, .T. ) ;
#95 =( NAMED_UNIT ( * ) PLANE_ANGLE_UNIT ( ) SI_UNIT ( $, .RADIAN. ) );
#96 = CARTESIAN_POINT ( 'NONE',  ( 3.749999999999937400, 0.0000000000000000000, 62.50000000000000000 ) ) ;
#97 = CC_DESIGN_PERSON_AND_ORGANIZATION_ASSIGNMENT ( #202, #236, ( #203 ) ) ;
#98 = EDGE_LOOP ( 'NONE', ( #156, #1, #227, #218 ) ) ;
#99 = PERSON_AND_ORGANIZATION_ROLE ( 'classification_officer' ) ;
#100 = PERSON_AND_ORGANIZATION ( #270, #138 ) ;
#101 = APPROVAL_STATUS ( 'not_yet_approved' ) ;
#102 = DIRECTION ( 'NONE',  ( 0.0000000000000000000, 0.0000000000000000000, -1.000000000000000000 ) ) ;
#103 = CARTESIAN_POINT ( 'NONE',  ( 4.000000000000000000, 0.0000000000000000000, 62.24999999999994300 ) ) ;
#104 = EDGE_LOOP ( 'NONE', ( #89, #8 ) ) ;
#105 = DIRECTION ( 'NONE',  ( -1.000000000000000000, -0.0000000000000000000, -0.0000000000000000000 ) ) ;
#106 = EDGE_CURVE ( 'NONE', #83, #65, #166, .T. ) ;
#107 = CARTESIAN_POINT ( 'NONE',  ( -3.750000000000006700, 0.0000000000000000000, 62.50000000000000000 ) ) ;
#108 = ORIENTED_EDGE ( 'NONE', *, *, #207, .F. ) ;
#109 = DATE_AND_TIME ( #150, #160 ) ;
#110 = PRODUCT_RELATED_PRODUCT_CATEGORY ( 'detail', '', ( #203 ) ) ;
#111 = CONICAL_SURFACE ( 'NONE', #168, 62.50000000000000000, 0.7853981633974621600 ) ;
#112 = EDGE_CURVE ( 'NONE', #260, #178, #131, .T. ) ;
#113 = VERTEX_POINT ( 'NONE', #103 ) ;
#114 = EDGE_CURVE ( 'NONE', #65, #129, #42, .T. ) ;
#115 = ORIENTED_EDGE ( 'NONE', *, *, #147, .T. ) ;
#116 = COORDINATED_UNIVERSAL_TIME_OFFSET ( 5, 0, .BEHIND. ) ;
#117 = EDGE_LOOP ( 'NONE', ( #11, #174, #36, #159 ) ) ;
#118 = LINE ( 'NONE', #186, #31 ) ;
#119 = PERSON_AND_ORGANIZATION_ROLE ( 'creator' ) ;
#120 = AXIS2_PLACEMENT_3D ( 'NONE', #123, #7, #68 ) ;
#121 = DIRECTION ( 'NONE',  ( -1.000000000000000000, -0.0000000000000000000, -0.0000000000000000000 ) ) ;
#122 = VECTOR ( 'NONE', #241, 999.9999999999998900 ) ;
#123 = CARTESIAN_POINT ( 'NONE',  ( -3.750000000000006700, 0.0000000000000000000, 0.0000000000000000000 ) ) ;
#124 = CARTESIAN_POINT ( 'NONE',  ( 4.000000000000000000, 7.654042494670957800E-015, -62.50000000000000000 ) ) ;
#125 = CALENDAR_DATE ( 2019, 10, 1 ) ;
#126 = ADVANCED_BREP_SHAPE_REPRESENTATION ( 'Web Model 11857_11860', ( #180, #66 ), #55 ) ;
#127 = EDGE_CURVE ( 'NONE', #113, #59, #245, .T. ) ;
#128 = FACE_OUTER_BOUND ( 'NONE', #56, .T. ) ;
#129 = VERTEX_POINT ( 'NONE', #107 ) ;
#130 = PRODUCT_DEFINITION_SHAPE ( 'NONE', 'NONE',  #184 ) ;
#131 = CIRCLE ( 'NONE', #237, 62.50000000000000000 ) ;
#132 = LOCAL_TIME ( 14, 38, 41.00000000000000000, #91 ) ;
#133 = DIRECTION ( 'NONE',  ( 1.000000000000000000, -0.0000000000000000000, -0.0000000000000000000 ) ) ;
#134 = ORIENTED_EDGE ( 'NONE', *, *, #135, .F. ) ;
#135 = EDGE_CURVE ( 'NONE', #113, #260, #146, .T. ) ;
#136 = DIRECTION ( 'NONE',  ( -1.000000000000000000, 0.0000000000000000000, 0.0000000000000000000 ) ) ;
#137 = CARTESIAN_POINT ( 'NONE',  ( 3.749999999999937400, 0.0000000000000000000, 0.0000000000000000000 ) ) ;
#138 = ORGANIZATION ( 'UNSPECIFIED', 'UNSPECIFIED', '' ) ;
#139 = FACE_OUTER_BOUND ( 'NONE', #104, .T. ) ;
#140 = APPROVAL_ROLE ( '' ) ;
#141 = APPROVAL_PERSON_ORGANIZATION ( #12, #222, #193 ) ;
#142 = CC_DESIGN_DATE_AND_TIME_ASSIGNMENT ( #239, #187, ( #184 ) ) ;
#143 = APPROVAL_ROLE ( '' ) ;
#144 = ADVANCED_FACE ( 'NONE', ( #217 ), #111, .T. ) ;
#145 = CIRCLE ( 'NONE', #209, 62.50000000000000000 ) ;
#146 = LINE ( 'NONE', #238, #122 ) ;
#147 = EDGE_CURVE ( 'NONE', #260, #129, #88, .T. ) ;
#148 = APPROVAL_STATUS ( 'not_yet_approved' ) ;
#149 = CARTESIAN_POINT ( 'NONE',  ( -3.750000000000006700, 0.0000000000000000000, 0.0000000000000000000 ) ) ;
#150 = CALENDAR_DATE ( 2019, 10, 1 ) ;
#151 = LOCAL_TIME ( 14, 38, 41.00000000000000000, #40 ) ;
#152 = DIRECTION ( 'NONE',  ( 1.000000000000000000, -0.0000000000000000000, -0.0000000000000000000 ) ) ;
#153 = DIRECTION ( 'NONE',  ( 0.0000000000000000000, 0.0000000000000000000, 1.000000000000000000 ) ) ;
#154 = EDGE_CURVE ( 'NONE', #59, #113, #244, .T. ) ;
#155 = CARTESIAN_POINT ( 'NONE',  ( -4.000000000000000000, 0.0000000000000000000, 0.0000000000000000000 ) ) ;
#156 = ORIENTED_EDGE ( 'NONE', *, *, #272, .F. ) ;
#157 = AXIS2_PLACEMENT_3D ( 'NONE', #243, #121, #79 ) ;
#158 = FACE_OUTER_BOUND ( 'NONE', #54, .T. ) ;
#159 = ORIENTED_EDGE ( 'NONE', *, *, #84, .F. ) ;
#160 = LOCAL_TIME ( 14, 38, 41.00000000000000000, #3 ) ;
#161 = ADVANCED_FACE ( 'NONE', ( #229 ), #201, .T. ) ;
#162 =( NAMED_UNIT ( * ) SI_UNIT ( $, .STERADIAN. ) SOLID_ANGLE_UNIT ( ) );
#163 = CARTESIAN_POINT ( 'NONE',  ( 0.0000000000000000000, 0.0000000000000000000, 0.0000000000000000000 ) ) ;
#164 = DIRECTION ( 'NONE',  ( 0.0000000000000000000, 0.0000000000000000000, -1.000000000000000000 ) ) ;
#165 = APPLICATION_PROTOCOL_DEFINITION ( 'international standard', 'config_control_design', 1994, #189 ) ;
#166 = CIRCLE ( 'NONE', #157, 62.25000000000000000 ) ;
#167 = PERSON_AND_ORGANIZATION_ROLE ( 'creator' ) ;
#168 = AXIS2_PLACEMENT_3D ( 'NONE', #149, #173, #9 ) ;
#169 = APPROVAL_STATUS ( 'not_yet_approved' ) ;
#170 = CARTESIAN_POINT ( 'NONE',  ( -3.750000000000006700, 0.0000000000000000000, 0.0000000000000000000 ) ) ;
#171 = ORIENTED_EDGE ( 'NONE', *, *, #62, .T. ) ;
#172 = DIRECTION ( 'NONE',  ( -1.000000000000000000, -0.0000000000000000000, -0.0000000000000000000 ) ) ;
#173 = DIRECTION ( 'NONE',  ( 1.000000000000000000, -0.0000000000000000000, -0.0000000000000000000 ) ) ;
#174 = ORIENTED_EDGE ( 'NONE', *, *, #106, .F. ) ;
#175 = PRODUCT_DEFINITION_FORMATION_WITH_SPECIFIED_SOURCE ( 'ANY', '', #203, .NOT_KNOWN. ) ;
#176 = DIRECTION ( 'NONE',  ( -1.000000000000000000, -0.0000000000000000000, -0.0000000000000000000 ) ) ;
#177 = EDGE_CURVE ( 'NONE', #178, #260, #22, .T. ) ;
#178 = VERTEX_POINT ( 'NONE', #249 ) ;
#179 = PERSON_AND_ORGANIZATION ( #270, #138 ) ;
#180 = MANIFOLD_SOLID_BREP ( 'Chamfer1', #43 ) ;
#181 = ORIENTED_EDGE ( 'NONE', *, *, #154, .F. ) ;
#182 = DATE_AND_TIME ( #125, #231 ) ;
#183 = LINE ( 'NONE', #16, #190 ) ;
#184 = PRODUCT_DEFINITION ( 'UNKNOWN', '', #175, #263 ) ;
#185 = CARTESIAN_POINT ( 'NONE',  ( -4.000000000000000000, 0.0000000000000000000, 0.0000000000000000000 ) ) ;
#186 = CARTESIAN_POINT ( 'NONE',  ( -3.750000000000006700, 0.0000000000000000000, -62.50000000000000000 ) ) ;
#187 = DATE_TIME_ROLE ( 'creation_date' ) ;
#188 = CC_DESIGN_PERSON_AND_ORGANIZATION_ASSIGNMENT ( #70, #99, ( #254 ) ) ;
#189 = APPLICATION_CONTEXT ( 'configuration controlled 3d designs of mechanical parts and assemblies' ) ;
#190 = VECTOR ( 'NONE', #255, 999.9999999999998900 ) ;
#191 = EDGE_CURVE ( 'NONE', #83, #77, #118, .T. ) ;
#192 = DIRECTION ( 'NONE',  ( -1.000000000000000000, -0.0000000000000000000, -0.0000000000000000000 ) ) ;
#193 = APPROVAL_ROLE ( '' ) ;
#194 = PLANE ( 'NONE',  #75 ) ;
#195 = CARTESIAN_POINT ( 'NONE',  ( 4.000000000000000000, 0.0000000000000000000, 0.0000000000000000000 ) ) ;
#196 = CONICAL_SURFACE ( 'NONE', #246, 62.24999999999994300, 0.7853981633974344000 ) ;
#197 = VECTOR ( 'NONE', #172, 1000.000000000000000 ) ;
#198 = ORIENTED_EDGE ( 'NONE', *, *, #62, .F. ) ;
#199 = CC_DESIGN_PERSON_AND_ORGANIZATION_ASSIGNMENT ( #179, #119, ( #175 ) ) ;
#200 = PERSON_AND_ORGANIZATION ( #270, #138 ) ;
#201 = PLANE ( 'NONE',  #2 ) ;
#202 = PERSON_AND_ORGANIZATION ( #270, #138 ) ;
#203 = PRODUCT ( 'Web Model 11857_11860', 'Web Model 11857_11860', '', ( #44 ) ) ;
#204 = CONICAL_SURFACE ( 'NONE', #13, 62.24999999999994300, 0.7853981633974344000 ) ;
#205 = CYLINDRICAL_SURFACE ( 'NONE', #93, 62.50000000000000000 ) ;
#206 = ORIENTED_EDGE ( 'NONE', *, *, #177, .F. ) ;
#207 = EDGE_CURVE ( 'NONE', #59, #178, #183, .T. ) ;
#208 = APPROVAL_PERSON_ORGANIZATION ( #87, #30, #143 ) ;
#209 = AXIS2_PLACEMENT_3D ( 'NONE', #273, #133, #14 ) ;
#210 = ORIENTED_EDGE ( 'NONE', *, *, #147, .F. ) ;
#211 = ORIENTED_EDGE ( 'NONE', *, *, #207, .T. ) ;
#212 = DIRECTION ( 'NONE',  ( 0.0000000000000000000, 0.0000000000000000000, 1.000000000000000000 ) ) ;
#213 = ADVANCED_FACE ( 'NONE', ( #250 ), #204, .T. ) ;
#214 = EDGE_LOOP ( 'NONE', ( #108, #25, #221, #206 ) ) ;
#215 = AXIS2_PLACEMENT_3D ( 'NONE', #137, #41, #164 ) ;
#216 = CARTESIAN_POINT ( 'NONE',  ( 4.000000000000000000, 7.638734409681612800E-015, -62.24999999999994300 ) ) ;
#217 = FACE_OUTER_BOUND ( 'NONE', #117, .T. ) ;
#218 = ORIENTED_EDGE ( 'NONE', *, *, #191, .F. ) ;
#219 = DIRECTION ( 'NONE',  ( 0.0000000000000000000, 0.0000000000000000000, -1.000000000000000000 ) ) ;
#220 = VECTOR ( 'NONE', #51, 1000.000000000000000 ) ;
#221 = ORIENTED_EDGE ( 'NONE', *, *, #135, .T. ) ;
#222 = APPROVAL ( #169, 'UNSPECIFIED' ) ;
#223 = AXIS2_PLACEMENT_3D ( 'NONE', #170, #152, #50 ) ;
#224 = DIRECTION ( 'NONE',  ( 1.000000000000000000, 0.0000000000000000000, 0.0000000000000000000 ) ) ;
#225 = CC_DESIGN_APPROVAL ( #48, ( #175 ) ) ;
#226 = CIRCLE ( 'NONE', #120, 62.50000000000000000 ) ;
#227 = ORIENTED_EDGE ( 'NONE', *, *, #259, .F. ) ;
#228 = DATE_AND_TIME ( #257, #85 ) ;
#229 = FACE_OUTER_BOUND ( 'NONE', #19, .T. ) ;
#230 = DIRECTION ( 'NONE',  ( 0.7071067811865378000, 0.0000000000000000000, -0.7071067811865573400 ) ) ;
#231 = LOCAL_TIME ( 14, 38, 41.00000000000000000, #116 ) ;
#232 = DIRECTION ( 'NONE',  ( -1.000000000000000000, -0.0000000000000000000, -0.0000000000000000000 ) ) ;
#233 = ADVANCED_FACE ( 'NONE', ( #128 ), #196, .T. ) ;
#234 = CARTESIAN_POINT ( 'NONE',  ( 4.000000000000000000, 0.0000000000000000000, 0.0000000000000000000 ) ) ;
#235 = CC_DESIGN_DATE_AND_TIME_ASSIGNMENT ( #182, #45, ( #254 ) ) ;
#236 = PERSON_AND_ORGANIZATION_ROLE ( 'design_owner' ) ;
#237 = AXIS2_PLACEMENT_3D ( 'NONE', #76, #52, #102 ) ;
#238 = CARTESIAN_POINT ( 'NONE',  ( 4.000000000000000000, 0.0000000000000000000, 62.24999999999994300 ) ) ;
#239 = DATE_AND_TIME ( #17, #132 ) ;
#240 = CC_DESIGN_PERSON_AND_ORGANIZATION_ASSIGNMENT ( #100, #20, ( #175 ) ) ;
#241 = DIRECTION ( 'NONE',  ( -0.7071067811865574500, 0.0000000000000000000, 0.7071067811865376900 ) ) ;
#242 = ORIENTED_EDGE ( 'NONE', *, *, #112, .T. ) ;
#243 = CARTESIAN_POINT ( 'NONE',  ( -4.000000000000000000, 0.0000000000000000000, 0.0000000000000000000 ) ) ;
#244 = CIRCLE ( 'NONE', #86, 62.24999999999994300 ) ;
#245 = CIRCLE ( 'NONE', #35, 62.24999999999994300 ) ;
#246 = AXIS2_PLACEMENT_3D ( 'NONE', #92, #15, #212 ) ;
#247 = ORIENTED_EDGE ( 'NONE', *, *, #154, .T. ) ;
#248 = PERSON_AND_ORGANIZATION ( #270, #138 ) ;
#249 = CARTESIAN_POINT ( 'NONE',  ( 3.749999999999937400, 7.654042494670957800E-015, -62.50000000000000000 ) ) ;
#250 = FACE_OUTER_BOUND ( 'NONE', #214, .T. ) ;
#251 = ORIENTED_EDGE ( 'NONE', *, *, #112, .F. ) ;
#252 = AXIS2_PLACEMENT_3D ( 'NONE', #69, #105, #262 ) ;
#253 = SHAPE_DEFINITION_REPRESENTATION ( #130, #126 ) ;
#254 = SECURITY_CLASSIFICATION ( '', '', #21 ) ;
#255 = DIRECTION ( 'NONE',  ( -0.7071067811865574500, 8.659560562354813300E-017, -0.7071067811865376900 ) ) ;
#256 =( LENGTH_UNIT ( ) NAMED_UNIT ( * ) SI_UNIT ( .MILLI., .METRE. ) );
#257 = CALENDAR_DATE ( 2019, 10, 1 ) ;
#258 = DIRECTION ( 'NONE',  ( 1.000000000000000000, 0.0000000000000000000, 0.0000000000000000000 ) ) ;
#259 = EDGE_CURVE ( 'NONE', #77, #129, #145, .T. ) ;
#260 = VERTEX_POINT ( 'NONE', #96 ) ;
#261 = CC_DESIGN_APPROVAL ( #222, ( #254 ) ) ;
#262 = DIRECTION ( 'NONE',  ( 0.0000000000000000000, 0.0000000000000000000, 1.000000000000000000 ) ) ;
#263 = DESIGN_CONTEXT ( 'detailed design', #189, 'design' ) ;
#264 = CALENDAR_DATE ( 2019, 10, 1 ) ;
#265 = DIRECTION ( 'NONE',  ( 1.000000000000000000, 0.0000000000000000000, 0.0000000000000000000 ) ) ;
#266 = CARTESIAN_POINT ( 'NONE',  ( 4.000000000000000000, 0.0000000000000000000, 0.0000000000000000000 ) ) ;
#267 = APPROVAL_PERSON_ORGANIZATION ( #248, #48, #140 ) ;
#268 = DIRECTION ( 'NONE',  ( 1.000000000000000000, 0.0000000000000000000, 0.0000000000000000000 ) ) ;
#269 = CC_DESIGN_APPROVAL ( #30, ( #184 ) ) ;
#270 = PERSON ( 'UNSPECIFIED', 'UNSPECIFIED', 'UNSPECIFIED', ('UNSPECIFIED'), ('UNSPECIFIED'), ('UNSPECIFIED') ) ;
#271 = CONICAL_SURFACE ( 'NONE', #223, 62.50000000000000000, 0.7853981633974621600 ) ;
#272 = EDGE_CURVE ( 'NONE', #65, #83, #46, .T. ) ;
#273 = CARTESIAN_POINT ( 'NONE',  ( -3.750000000000006700, 0.0000000000000000000, 0.0000000000000000000 ) ) ;
#274 = DIRECTION ( 'NONE',  ( 0.0000000000000000000, 0.0000000000000000000, 1.000000000000000000 ) ) ;
#275 = ORIENTED_EDGE ( 'NONE', *, *, #177, .T. ) ;
ENDSEC;
END-ISO-10303-21;
