ISO-10303-21;
HEADER;
FILE_DESCRIPTION (( 'STEP AP203' ),
    '1' );
FILE_NAME ('Web Model 19837_22693.step',
    '2022-05-24T16:12:08',
    ( 'WC' ),
    ( 'Windows Central' ),
    'SwSTEP 2.0',
    'SolidWorks 2021',
    '' );
FILE_SCHEMA (( 'CONFIG_CONTROL_DESIGN' ));
ENDSEC;

DATA;
#1 = CARTESIAN_POINT ( 'NONE',  ( 7.500000000000000000, 9.184850993605147944E-16, 0.000000000000000000 ) ) ;
#2 = CARTESIAN_POINT ( 'NONE',  ( 0.000000000000000000, 0.000000000000000000, 0.000000000000000000 ) ) ;
#3 = FACE_OUTER_BOUND ( 'NONE', #63, .T. ) ;
#4 = CC_DESIGN_PERSON_AND_ORGANIZATION_ASSIGNMENT ( #57, #120, ( #117 ) ) ;
#5 = CC_DESIGN_DATE_AND_TIME_ASSIGNMENT ( #9, #107, ( #143 ) ) ;
#6 = PERSON_AND_ORGANIZATION_ROLE ( 'classification_officer' ) ;
#7 = EDGE_CURVE ( 'NONE', #21, #37, #112, .T. ) ;
#8 = DATE_AND_TIME ( #77, #35 ) ;
#9 = DATE_AND_TIME ( #19, #153 ) ;
#10 = DIRECTION ( 'NONE',  ( 0.000000000000000000, 0.000000000000000000, 1.000000000000000000 ) ) ;
#11 = AXIS2_PLACEMENT_3D ( 'NONE', #36, #10, #48 ) ;
#12 = SECURITY_CLASSIFICATION ( '', '', #136 ) ;
#13 = FACE_OUTER_BOUND ( 'NONE', #148, .T. ) ;
#14 =( NAMED_UNIT ( * ) PLANE_ANGLE_UNIT ( ) SI_UNIT ( $, .RADIAN. ) );
#15 = CC_DESIGN_DATE_AND_TIME_ASSIGNMENT ( #8, #172, ( #12 ) ) ;
#16 = CALENDAR_DATE ( 2022, 24, 5 ) ;
#17 = LOCAL_TIME ( 12, 12, 8.000000000000000000, #102 ) ;
#18 = PERSON_AND_ORGANIZATION_ROLE ( 'creator' ) ;
#19 = CALENDAR_DATE ( 2022, 24, 5 ) ;
#20 = PERSON_AND_ORGANIZATION ( #50, #101 ) ;
#21 = VERTEX_POINT ( 'NONE', #122 ) ;
#22 = PRODUCT_RELATED_PRODUCT_CATEGORY ( 'detail', '', ( #167 ) ) ;
#23 = CARTESIAN_POINT ( 'NONE',  ( 7.500000000000000000, 9.184850993605147944E-16, 1.000000000000000000 ) ) ;
#24 = LINE ( 'NONE', #26, #116 ) ;
#25 = DIRECTION ( 'NONE',  ( -0.000000000000000000, -0.000000000000000000, -1.000000000000000000 ) ) ;
#26 = CARTESIAN_POINT ( 'NONE',  ( -7.500000000000000000, 0.000000000000000000, 1.000000000000000000 ) ) ;
#27 = DIRECTION ( 'NONE',  ( 0.000000000000000000, 0.000000000000000000, 1.000000000000000000 ) ) ;
#28 = APPLICATION_PROTOCOL_DEFINITION ( 'international standard', 'config_control_design', 1994, #79 ) ;
#29 = AXIS2_PLACEMENT_3D ( 'NONE', #38, #39, #95 ) ;
#30 = APPROVAL ( #45, 'UNSPECIFIED' ) ;
#31 = VECTOR ( 'NONE', #127, 1000.000000000000000 ) ;
#32 = PERSON_AND_ORGANIZATION_ROLE ( 'creator' ) ;
#33 = ORIENTED_EDGE ( 'NONE', *, *, #7, .T. ) ;
#34 = CALENDAR_DATE ( 2022, 24, 5 ) ;
#35 = LOCAL_TIME ( 12, 12, 8.000000000000000000, #118 ) ;
#36 = CARTESIAN_POINT ( 'NONE',  ( 0.000000000000000000, 0.000000000000000000, 1.000000000000000000 ) ) ;
#37 = VERTEX_POINT ( 'NONE', #110 ) ;
#38 = CARTESIAN_POINT ( 'NONE',  ( 0.000000000000000000, 0.000000000000000000, 1.000000000000000000 ) ) ;
#39 = DIRECTION ( 'NONE',  ( 0.000000000000000000, 0.000000000000000000, 1.000000000000000000 ) ) ;
#40 = DIRECTION ( 'NONE',  ( 1.000000000000000000, 0.000000000000000000, 0.000000000000000000 ) ) ;
#41 = APPROVAL ( #44, 'UNSPECIFIED' ) ;
#42 = DIRECTION ( 'NONE',  ( 1.000000000000000000, 0.000000000000000000, 0.000000000000000000 ) ) ;
#43 = AXIS2_PLACEMENT_3D ( 'NONE', #169, #157, #86 ) ;
#44 = APPROVAL_STATUS ( 'not_yet_approved' ) ;
#45 = APPROVAL_STATUS ( 'not_yet_approved' ) ;
#46 = PERSON_AND_ORGANIZATION ( #50, #101 ) ;
#47 = EDGE_CURVE ( 'NONE', #108, #91, #104, .T. ) ;
#48 = DIRECTION ( 'NONE',  ( 1.000000000000000000, 0.000000000000000000, 0.000000000000000000 ) ) ;
#49 = DIRECTION ( 'NONE',  ( 0.000000000000000000, 0.000000000000000000, 1.000000000000000000 ) ) ;
#50 = PERSON ( 'UNSPECIFIED', 'UNSPECIFIED', 'UNSPECIFIED', ('UNSPECIFIED'), ('UNSPECIFIED'), ('UNSPECIFIED') ) ;
#51 = CARTESIAN_POINT ( 'NONE',  ( 0.000000000000000000, 0.000000000000000000, 1.000000000000000000 ) ) ;
#52 = AXIS2_PLACEMENT_3D ( 'NONE', #51, #83, #98 ) ;
#53 = PERSON_AND_ORGANIZATION ( #50, #101 ) ;
#54 = CC_DESIGN_APPROVAL ( #30, ( #117 ) ) ;
#55 = UNCERTAINTY_MEASURE_WITH_UNIT (LENGTH_MEASURE( 1.000000000000000082E-05 ), #165, 'distance_accuracy_value', 'NONE');
#56 = APPLICATION_CONTEXT ( 'configuration controlled 3d designs of mechanical parts and assemblies' ) ;
#57 = PERSON_AND_ORGANIZATION ( #50, #101 ) ;
#58 = PERSON_AND_ORGANIZATION ( #50, #101 ) ;
#59 = ORIENTED_EDGE ( 'NONE', *, *, #47, .F. ) ;
#60 = SHAPE_DEFINITION_REPRESENTATION ( #100, #132 ) ;
#61 = EDGE_CURVE ( 'NONE', #91, #108, #115, .T. ) ;
#62 = ORIENTED_EDGE ( 'NONE', *, *, #128, .F. ) ;
#63 = EDGE_LOOP ( 'NONE', ( #62, #109, #121, #89 ) ) ;
#64 = APPROVAL_PERSON_ORGANIZATION ( #58, #41, #119 ) ;
#65 = ORIENTED_EDGE ( 'NONE', *, *, #61, .F. ) ;
#66 = DIRECTION ( 'NONE',  ( 0.000000000000000000, 0.000000000000000000, 1.000000000000000000 ) ) ;
#67 = LINE ( 'NONE', #23, #31 ) ;
#68 = DIRECTION ( 'NONE',  ( 0.000000000000000000, 0.000000000000000000, 1.000000000000000000 ) ) ;
#69 = APPROVAL_PERSON_ORGANIZATION ( #147, #30, #135 ) ;
#70 = ADVANCED_FACE ( 'NONE', ( #96 ), #113, .T. ) ;
#71 = PERSON_AND_ORGANIZATION ( #50, #101 ) ;
#72 = DATE_AND_TIME ( #16, #17 ) ;
#73 = CC_DESIGN_SECURITY_CLASSIFICATION ( #12, ( #117 ) ) ;
#74 = COORDINATED_UNIVERSAL_TIME_OFFSET ( 5, 0, .BEHIND. ) ;
#75 = DATE_AND_TIME ( #163, #171 ) ;
#76 = ORIENTED_EDGE ( 'NONE', *, *, #128, .T. ) ;
#77 = CALENDAR_DATE ( 2022, 24, 5 ) ;
#78 = AXIS2_PLACEMENT_3D ( 'NONE', #2, #49, #40 ) ;
#79 = APPLICATION_CONTEXT ( 'configuration controlled 3d designs of mechanical parts and assemblies' ) ;
#80 = DIRECTION ( 'NONE',  ( 1.000000000000000000, 0.000000000000000000, 0.000000000000000000 ) ) ;
#81 = FACE_OUTER_BOUND ( 'NONE', #93, .T. ) ;
#82 = EDGE_CURVE ( 'NONE', #21, #108, #24, .T. ) ;
#83 = DIRECTION ( 'NONE',  ( -0.000000000000000000, -0.000000000000000000, -1.000000000000000000 ) ) ;
#84 = DIRECTION ( 'NONE',  ( 1.000000000000000000, 0.000000000000000000, -0.000000000000000000 ) ) ;
#85 = APPROVAL_STATUS ( 'not_yet_approved' ) ;
#86 = DIRECTION ( 'NONE',  ( 1.000000000000000000, 0.000000000000000000, 0.000000000000000000 ) ) ;
#87 = AXIS2_PLACEMENT_3D ( 'NONE', #168, #66, #42 ) ;
#88 = APPROVAL_DATE_TIME ( #72, #158 ) ;
#89 = ORIENTED_EDGE ( 'NONE', *, *, #47, .T. ) ;
#90 = DATE_AND_TIME ( #34, #164 ) ;
#91 = VERTEX_POINT ( 'NONE', #1 ) ;
#92 = ADVANCED_FACE ( 'NONE', ( #81 ), #124, .T. ) ;
#93 = EDGE_LOOP ( 'NONE', ( #123, #76, #175, #162 ) ) ;
#94 = CARTESIAN_POINT ( 'NONE',  ( -7.500000000000000000, 0.000000000000000000, 0.000000000000000000 ) ) ;
#95 = DIRECTION ( 'NONE',  ( 1.000000000000000000, 0.000000000000000000, -0.000000000000000000 ) ) ;
#96 = FACE_OUTER_BOUND ( 'NONE', #151, .T. ) ;
#97 =( GEOMETRIC_REPRESENTATION_CONTEXT ( 3 ) GLOBAL_UNCERTAINTY_ASSIGNED_CONTEXT ( ( #55 ) ) GLOBAL_UNIT_ASSIGNED_CONTEXT ( ( #165, #14, #99 ) ) REPRESENTATION_CONTEXT ( 'NONE', 'WORKASPACE' ) );
#98 = DIRECTION ( 'NONE',  ( -1.000000000000000000, 0.000000000000000000, 0.000000000000000000 ) ) ;
#99 =( NAMED_UNIT ( * ) SI_UNIT ( $, .STERADIAN. ) SOLID_ANGLE_UNIT ( ) );
#100 = PRODUCT_DEFINITION_SHAPE ( 'NONE', 'NONE',  #143 ) ;
#101 = ORGANIZATION ( 'UNSPECIFIED', 'UNSPECIFIED', '' ) ;
#102 = COORDINATED_UNIVERSAL_TIME_OFFSET ( 5, 0, .BEHIND. ) ;
#103 = DESIGN_CONTEXT ( 'detailed design', #79, 'design' ) ;
#104 = CIRCLE ( 'NONE', #87, 7.500000000000000000 ) ;
#105 = PERSON_AND_ORGANIZATION ( #50, #101 ) ;
#106 = ADVANCED_FACE ( 'NONE', ( #13 ), #111, .F. ) ;
#107 = DATE_TIME_ROLE ( 'creation_date' ) ;
#108 = VERTEX_POINT ( 'NONE', #94 ) ;
#109 = ORIENTED_EDGE ( 'NONE', *, *, #7, .F. ) ;
#110 = CARTESIAN_POINT ( 'NONE',  ( 7.500000000000000000, 9.184850993605147944E-16, 1.000000000000000000 ) ) ;
#111 = PLANE ( 'NONE',  #149 ) ;
#112 = CIRCLE ( 'NONE', #11, 7.500000000000000000 ) ;
#113 = PLANE ( 'NONE',  #29 ) ;
#114 = CARTESIAN_POINT ( 'NONE',  ( 0.000000000000000000, 0.000000000000000000, 0.000000000000000000 ) ) ;
#115 = CIRCLE ( 'NONE', #78, 7.500000000000000000 ) ;
#116 = VECTOR ( 'NONE', #25, 1000.000000000000000 ) ;
#117 = PRODUCT_DEFINITION_FORMATION_WITH_SPECIFIED_SOURCE ( 'ANY', '', #167, .NOT_KNOWN. ) ;
#118 = COORDINATED_UNIVERSAL_TIME_OFFSET ( 5, 0, .BEHIND. ) ;
#119 = APPROVAL_ROLE ( '' ) ;
#120 = PERSON_AND_ORGANIZATION_ROLE ( 'design_supplier' ) ;
#121 = ORIENTED_EDGE ( 'NONE', *, *, #82, .T. ) ;
#122 = CARTESIAN_POINT ( 'NONE',  ( -7.500000000000000000, 0.000000000000000000, 1.000000000000000000 ) ) ;
#123 = ORIENTED_EDGE ( 'NONE', *, *, #152, .F. ) ;
#124 = CYLINDRICAL_SURFACE ( 'NONE', #134, 7.500000000000000000 ) ;
#125 = CC_DESIGN_PERSON_AND_ORGANIZATION_ASSIGNMENT ( #105, #32, ( #117 ) ) ;
#126 = CIRCLE ( 'NONE', #139, 7.500000000000000000 ) ;
#127 = DIRECTION ( 'NONE',  ( -0.000000000000000000, -0.000000000000000000, -1.000000000000000000 ) ) ;
#128 = EDGE_CURVE ( 'NONE', #37, #91, #67, .T. ) ;
#129 = APPROVAL_PERSON_ORGANIZATION ( #53, #158, #170 ) ;
#130 = APPLICATION_PROTOCOL_DEFINITION ( 'international standard', 'config_control_design', 1994, #56 ) ;
#131 = PERSON_AND_ORGANIZATION_ROLE ( 'design_owner' ) ;
#132 = ADVANCED_BREP_SHAPE_REPRESENTATION ( 'Web Model 19837_22693', ( #144, #43 ), #97 ) ;
#133 = CC_DESIGN_PERSON_AND_ORGANIZATION_ASSIGNMENT ( #71, #131, ( #167 ) ) ;
#134 = AXIS2_PLACEMENT_3D ( 'NONE', #154, #141, #156 ) ;
#135 = APPROVAL_ROLE ( '' ) ;
#136 = SECURITY_CLASSIFICATION_LEVEL ( 'unclassified' ) ;
#137 = APPROVAL_DATE_TIME ( #90, #41 ) ;
#138 = ORIENTED_EDGE ( 'NONE', *, *, #152, .T. ) ;
#139 = AXIS2_PLACEMENT_3D ( 'NONE', #155, #27, #80 ) ;
#140 = CYLINDRICAL_SURFACE ( 'NONE', #52, 7.500000000000000000 ) ;
#141 = DIRECTION ( 'NONE',  ( -0.000000000000000000, -0.000000000000000000, -1.000000000000000000 ) ) ;
#142 = CC_DESIGN_PERSON_AND_ORGANIZATION_ASSIGNMENT ( #46, #18, ( #143 ) ) ;
#143 = PRODUCT_DEFINITION ( 'UNKNOWN', '', #117, #103 ) ;
#144 = MANIFOLD_SOLID_BREP ( 'Boss-Extrude1', #145 ) ;
#145 = CLOSED_SHELL ( 'NONE', ( #92, #174, #70, #106 ) ) ;
#146 = MECHANICAL_CONTEXT ( 'NONE', #56, 'mechanical' ) ;
#147 = PERSON_AND_ORGANIZATION ( #50, #101 ) ;
#148 = EDGE_LOOP ( 'NONE', ( #59, #65 ) ) ;
#149 = AXIS2_PLACEMENT_3D ( 'NONE', #114, #68, #84 ) ;
#150 = APPROVAL_DATE_TIME ( #75, #30 ) ;
#151 = EDGE_LOOP ( 'NONE', ( #33, #138 ) ) ;
#152 = EDGE_CURVE ( 'NONE', #37, #21, #126, .T. ) ;
#153 = LOCAL_TIME ( 12, 12, 8.000000000000000000, #74 ) ;
#154 = CARTESIAN_POINT ( 'NONE',  ( 0.000000000000000000, 0.000000000000000000, 1.000000000000000000 ) ) ;
#155 = CARTESIAN_POINT ( 'NONE',  ( 0.000000000000000000, 0.000000000000000000, 1.000000000000000000 ) ) ;
#156 = DIRECTION ( 'NONE',  ( -1.000000000000000000, 0.000000000000000000, 0.000000000000000000 ) ) ;
#157 = DIRECTION ( 'NONE',  ( 0.000000000000000000, 0.000000000000000000, 1.000000000000000000 ) ) ;
#158 = APPROVAL ( #85, 'UNSPECIFIED' ) ;
#159 = CC_DESIGN_APPROVAL ( #158, ( #143 ) ) ;
#160 = CC_DESIGN_PERSON_AND_ORGANIZATION_ASSIGNMENT ( #20, #6, ( #12 ) ) ;
#161 = COORDINATED_UNIVERSAL_TIME_OFFSET ( 5, 0, .BEHIND. ) ;
#162 = ORIENTED_EDGE ( 'NONE', *, *, #82, .F. ) ;
#163 = CALENDAR_DATE ( 2022, 24, 5 ) ;
#164 = LOCAL_TIME ( 12, 12, 8.000000000000000000, #173 ) ;
#165 =( LENGTH_UNIT ( ) NAMED_UNIT ( * ) SI_UNIT ( .MILLI., .METRE. ) );
#166 = CC_DESIGN_APPROVAL ( #41, ( #12 ) ) ;
#167 = PRODUCT ( 'Web Model 19837_22693', 'Web Model 19837_22693', '', ( #146 ) ) ;
#168 = CARTESIAN_POINT ( 'NONE',  ( 0.000000000000000000, 0.000000000000000000, 0.000000000000000000 ) ) ;
#169 = CARTESIAN_POINT ( 'NONE',  ( 0.000000000000000000, 0.000000000000000000, 0.000000000000000000 ) ) ;
#170 = APPROVAL_ROLE ( '' ) ;
#171 = LOCAL_TIME ( 12, 12, 8.000000000000000000, #161 ) ;
#172 = DATE_TIME_ROLE ( 'classification_date' ) ;
#173 = COORDINATED_UNIVERSAL_TIME_OFFSET ( 5, 0, .BEHIND. ) ;
#174 = ADVANCED_FACE ( 'NONE', ( #3 ), #140, .T. ) ;
#175 = ORIENTED_EDGE ( 'NONE', *, *, #61, .T. ) ;
ENDSEC;
END-ISO-10303-21;
