ISO-10303-21;
HEADER;
FILE_DESCRIPTION (( 'STEP AP203' ),
    '1' );
FILE_NAME ('Web Model 43369_20955.step',
    '2022-03-16T14:56:38',
    ( '' ),
    ( '' ),
    'SwSTEP 2.0',
    'SolidWorks 2021',
    '' );
FILE_SCHEMA (( 'CONFIG_CONTROL_DESIGN' ));
ENDSEC;

DATA;
#1 = PERSON ( 'UNSPECIFIED', 'UNSPECIFIED', 'UNSPECIFIED', ('UNSPECIFIED'), ('UNSPECIFIED'), ('UNSPECIFIED') ) ;
#2 = PRODUCT_RELATED_PRODUCT_CATEGORY ( 'detail', '', ( #80 ) ) ;
#3 = COORDINATED_UNIVERSAL_TIME_OFFSET ( 5, 0, .BEHIND. ) ;
#4 = APPLICATION_CONTEXT ( 'configuration controlled 3d designs of mechanical parts and assemblies' ) ;
#5 = DATE_TIME_ROLE ( 'creation_date' ) ;
#6 = PERSON_AND_ORGANIZATION ( #1, #130 ) ;
#7 = LOCAL_TIME ( 10, 56, 38.00000000000000000, #111 ) ;
#8 = CLOSED_SHELL ( 'NONE', ( #49, #28, #63, #169 ) ) ;
#9 = PERSON_AND_ORGANIZATION ( #1, #130 ) ;
#10 = EDGE_LOOP ( 'NONE', ( #157, #103 ) ) ;
#11 = ORIENTED_EDGE ( 'NONE', *, *, #109, .T. ) ;
#12 = DIRECTION ( 'NONE',  ( 0.000000000000000000, 0.000000000000000000, 1.000000000000000000 ) ) ;
#13 = AXIS2_PLACEMENT_3D ( 'NONE', #172, #54, #133 ) ;
#14 = DATE_AND_TIME ( #26, #53 ) ;
#15 = PLANE ( 'NONE',  #18 ) ;
#16 = PRODUCT_DEFINITION ( 'UNKNOWN', '', #127, #145 ) ;
#17 = AXIS2_PLACEMENT_3D ( 'NONE', #104, #147, #144 ) ;
#18 = AXIS2_PLACEMENT_3D ( 'NONE', #175, #161, #135 ) ;
#19 = APPROVAL_ROLE ( '' ) ;
#20 = CC_DESIGN_PERSON_AND_ORGANIZATION_ASSIGNMENT ( #39, #81, ( #80 ) ) ;
#21 = FACE_OUTER_BOUND ( 'NONE', #168, .T. ) ;
#22 = EDGE_LOOP ( 'NONE', ( #114, #64 ) ) ;
#23 = VERTEX_POINT ( 'NONE', #132 ) ;
#24 = DIRECTION ( 'NONE',  ( -0.000000000000000000, -0.000000000000000000, -1.000000000000000000 ) ) ;
#25 =( NAMED_UNIT ( * ) PLANE_ANGLE_UNIT ( ) SI_UNIT ( $, .RADIAN. ) );
#26 = CALENDAR_DATE ( 2022, 16, 3 ) ;
#27 = DIRECTION ( 'NONE',  ( 1.000000000000000000, 0.000000000000000000, 0.000000000000000000 ) ) ;
#28 = ADVANCED_FACE ( 'NONE', ( #66 ), #155, .T. ) ;
#29 = SHAPE_DEFINITION_REPRESENTATION ( #146, #120 ) ;
#30 = CC_DESIGN_SECURITY_CLASSIFICATION ( #36, ( #127 ) ) ;
#31 = EDGE_CURVE ( 'NONE', #129, #23, #76, .T. ) ;
#32 = PERSON_AND_ORGANIZATION ( #1, #130 ) ;
#33 = CC_DESIGN_DATE_AND_TIME_ASSIGNMENT ( #44, #47, ( #36 ) ) ;
#34 = CARTESIAN_POINT ( 'NONE',  ( 0.000000000000000000, 0.000000000000000000, 1.000000000000000000 ) ) ;
#35 = UNCERTAINTY_MEASURE_WITH_UNIT (LENGTH_MEASURE( 1.000000000000000082E-05 ), #151, 'distance_accuracy_value', 'NONE');
#36 = SECURITY_CLASSIFICATION ( '', '', #162 ) ;
#37 = ORIENTED_EDGE ( 'NONE', *, *, #97, .T. ) ;
#38 = CIRCLE ( 'NONE', #98, 12.50000000000000000 ) ;
#39 = PERSON_AND_ORGANIZATION ( #1, #130 ) ;
#40 = CARTESIAN_POINT ( 'NONE',  ( -12.50000000000000000, 0.000000000000000000, 0.000000000000000000 ) ) ;
#41 = CARTESIAN_POINT ( 'NONE',  ( 0.000000000000000000, 0.000000000000000000, 0.000000000000000000 ) ) ;
#42 = CARTESIAN_POINT ( 'NONE',  ( 0.000000000000000000, 0.000000000000000000, 1.000000000000000000 ) ) ;
#43 =( GEOMETRIC_REPRESENTATION_CONTEXT ( 3 ) GLOBAL_UNCERTAINTY_ASSIGNED_CONTEXT ( ( #35 ) ) GLOBAL_UNIT_ASSIGNED_CONTEXT ( ( #151, #25, #57 ) ) REPRESENTATION_CONTEXT ( 'NONE', 'WORKASPACE' ) );
#44 = DATE_AND_TIME ( #101, #7 ) ;
#45 = APPROVAL_STATUS ( 'not_yet_approved' ) ;
#46 = CC_DESIGN_PERSON_AND_ORGANIZATION_ASSIGNMENT ( #32, #72, ( #127 ) ) ;
#47 = DATE_TIME_ROLE ( 'classification_date' ) ;
#48 = CALENDAR_DATE ( 2022, 16, 3 ) ;
#49 = ADVANCED_FACE ( 'NONE', ( #21 ), #77, .T. ) ;
#50 = ORIENTED_EDGE ( 'NONE', *, *, #109, .F. ) ;
#51 = DIRECTION ( 'NONE',  ( 1.000000000000000000, 0.000000000000000000, -0.000000000000000000 ) ) ;
#52 = CC_DESIGN_DATE_AND_TIME_ASSIGNMENT ( #136, #5, ( #16 ) ) ;
#53 = LOCAL_TIME ( 10, 56, 38.00000000000000000, #160 ) ;
#54 = DIRECTION ( 'NONE',  ( 0.000000000000000000, 0.000000000000000000, 1.000000000000000000 ) ) ;
#55 = APPROVAL_STATUS ( 'not_yet_approved' ) ;
#56 = PERSON_AND_ORGANIZATION ( #1, #130 ) ;
#57 =( NAMED_UNIT ( * ) SI_UNIT ( $, .STERADIAN. ) SOLID_ANGLE_UNIT ( ) );
#58 = COORDINATED_UNIVERSAL_TIME_OFFSET ( 5, 0, .BEHIND. ) ;
#59 = APPROVAL_DATE_TIME ( #123, #112 ) ;
#60 = CC_DESIGN_APPROVAL ( #112, ( #127 ) ) ;
#61 = PERSON_AND_ORGANIZATION_ROLE ( 'design_supplier' ) ;
#62 = EDGE_LOOP ( 'NONE', ( #78, #113, #11, #37 ) ) ;
#63 = ADVANCED_FACE ( 'NONE', ( #119 ), #69, .T. ) ;
#64 = ORIENTED_EDGE ( 'NONE', *, *, #31, .T. ) ;
#65 = AXIS2_PLACEMENT_3D ( 'NONE', #117, #90, #51 ) ;
#66 = FACE_OUTER_BOUND ( 'NONE', #62, .T. ) ;
#67 = CC_DESIGN_PERSON_AND_ORGANIZATION_ASSIGNMENT ( #153, #86, ( #36 ) ) ;
#68 = MECHANICAL_CONTEXT ( 'NONE', #140, 'mechanical' ) ;
#69 = PLANE ( 'NONE',  #65 ) ;
#70 = PERSON_AND_ORGANIZATION ( #1, #130 ) ;
#71 = APPROVAL_DATE_TIME ( #14, #85 ) ;
#72 = PERSON_AND_ORGANIZATION_ROLE ( 'creator' ) ;
#73 = CALENDAR_DATE ( 2022, 16, 3 ) ;
#74 = VECTOR ( 'NONE', #148, 1000.000000000000000 ) ;
#75 = ORIENTED_EDGE ( 'NONE', *, *, #125, .T. ) ;
#76 = CIRCLE ( 'NONE', #17, 12.50000000000000000 ) ;
#77 = CYLINDRICAL_SURFACE ( 'NONE', #150, 12.50000000000000000 ) ;
#78 = ORIENTED_EDGE ( 'NONE', *, *, #139, .F. ) ;
#79 = APPROVAL_PERSON_ORGANIZATION ( #9, #112, #19 ) ;
#80 = PRODUCT ( 'Web Model 43369_20955', 'Web Model 43369_20955', '', ( #68 ) ) ;
#81 = PERSON_AND_ORGANIZATION_ROLE ( 'design_owner' ) ;
#82 = APPROVAL_PERSON_ORGANIZATION ( #163, #118, #124 ) ;
#83 = DIRECTION ( 'NONE',  ( 1.000000000000000000, 0.000000000000000000, 0.000000000000000000 ) ) ;
#84 = CARTESIAN_POINT ( 'NONE',  ( -12.50000000000000000, 0.000000000000000000, 1.000000000000000000 ) ) ;
#85 = APPROVAL ( #55, 'UNSPECIFIED' ) ;
#86 = PERSON_AND_ORGANIZATION_ROLE ( 'classification_officer' ) ;
#87 = CIRCLE ( 'NONE', #88, 12.50000000000000000 ) ;
#88 = AXIS2_PLACEMENT_3D ( 'NONE', #41, #108, #27 ) ;
#89 = MANIFOLD_SOLID_BREP ( 'Boss-Extrude1', #8 ) ;
#90 = DIRECTION ( 'NONE',  ( 0.000000000000000000, 0.000000000000000000, 1.000000000000000000 ) ) ;
#91 = EDGE_CURVE ( 'NONE', #23, #129, #38, .T. ) ;
#92 = DIRECTION ( 'NONE',  ( 0.000000000000000000, 0.000000000000000000, 1.000000000000000000 ) ) ;
#93 = CC_DESIGN_APPROVAL ( #118, ( #36 ) ) ;
#94 = VECTOR ( 'NONE', #121, 1000.000000000000000 ) ;
#95 = LINE ( 'NONE', #84, #74 ) ;
#96 = DIRECTION ( 'NONE',  ( 1.000000000000000000, 0.000000000000000000, 0.000000000000000000 ) ) ;
#97 = EDGE_CURVE ( 'NONE', #143, #156, #87, .T. ) ;
#98 = AXIS2_PLACEMENT_3D ( 'NONE', #42, #92, #83 ) ;
#99 = APPROVAL_STATUS ( 'not_yet_approved' ) ;
#100 = COORDINATED_UNIVERSAL_TIME_OFFSET ( 5, 0, .BEHIND. ) ;
#101 = CALENDAR_DATE ( 2022, 16, 3 ) ;
#102 = ORIENTED_EDGE ( 'NONE', *, *, #31, .F. ) ;
#103 = ORIENTED_EDGE ( 'NONE', *, *, #125, .F. ) ;
#104 = CARTESIAN_POINT ( 'NONE',  ( 0.000000000000000000, 0.000000000000000000, 1.000000000000000000 ) ) ;
#105 = FACE_OUTER_BOUND ( 'NONE', #10, .T. ) ;
#106 = CARTESIAN_POINT ( 'NONE',  ( 12.50000000000000000, 1.530808498934191521E-15, 1.000000000000000000 ) ) ;
#107 = APPROVAL_ROLE ( '' ) ;
#108 = DIRECTION ( 'NONE',  ( 0.000000000000000000, 0.000000000000000000, 1.000000000000000000 ) ) ;
#109 = EDGE_CURVE ( 'NONE', #23, #143, #95, .T. ) ;
#110 = CALENDAR_DATE ( 2022, 16, 3 ) ;
#111 = COORDINATED_UNIVERSAL_TIME_OFFSET ( 5, 0, .BEHIND. ) ;
#112 = APPROVAL ( #45, 'UNSPECIFIED' ) ;
#113 = ORIENTED_EDGE ( 'NONE', *, *, #91, .F. ) ;
#114 = ORIENTED_EDGE ( 'NONE', *, *, #91, .T. ) ;
#115 = ORIENTED_EDGE ( 'NONE', *, *, #139, .T. ) ;
#116 = DIRECTION ( 'NONE',  ( -0.000000000000000000, -0.000000000000000000, -1.000000000000000000 ) ) ;
#117 = CARTESIAN_POINT ( 'NONE',  ( 0.000000000000000000, 0.000000000000000000, 1.000000000000000000 ) ) ;
#118 = APPROVAL ( #99, 'UNSPECIFIED' ) ;
#119 = FACE_OUTER_BOUND ( 'NONE', #22, .T. ) ;
#120 = ADVANCED_BREP_SHAPE_REPRESENTATION ( 'Web Model 43369_20955', ( #89, #154 ), #43 ) ;
#121 = DIRECTION ( 'NONE',  ( -0.000000000000000000, -0.000000000000000000, -1.000000000000000000 ) ) ;
#122 = LOCAL_TIME ( 10, 56, 38.00000000000000000, #58 ) ;
#123 = DATE_AND_TIME ( #110, #166 ) ;
#124 = APPROVAL_ROLE ( '' ) ;
#125 = EDGE_CURVE ( 'NONE', #156, #143, #167, .T. ) ;
#126 = DIRECTION ( 'NONE',  ( -1.000000000000000000, 0.000000000000000000, 0.000000000000000000 ) ) ;
#127 = PRODUCT_DEFINITION_FORMATION_WITH_SPECIFIED_SOURCE ( 'ANY', '', #80, .NOT_KNOWN. ) ;
#128 = APPROVAL_PERSON_ORGANIZATION ( #70, #85, #107 ) ;
#129 = VERTEX_POINT ( 'NONE', #149 ) ;
#130 = ORGANIZATION ( 'UNSPECIFIED', 'UNSPECIFIED', '' ) ;
#131 = CARTESIAN_POINT ( 'NONE',  ( 0.000000000000000000, 0.000000000000000000, 1.000000000000000000 ) ) ;
#132 = CARTESIAN_POINT ( 'NONE',  ( -12.50000000000000000, 0.000000000000000000, 1.000000000000000000 ) ) ;
#133 = DIRECTION ( 'NONE',  ( 1.000000000000000000, 0.000000000000000000, 0.000000000000000000 ) ) ;
#134 = APPLICATION_PROTOCOL_DEFINITION ( 'international standard', 'config_control_design', 1994, #4 ) ;
#135 = DIRECTION ( 'NONE',  ( 1.000000000000000000, 0.000000000000000000, -0.000000000000000000 ) ) ;
#136 = DATE_AND_TIME ( #73, #159 ) ;
#137 = CC_DESIGN_APPROVAL ( #85, ( #16 ) ) ;
#138 = APPROVAL_DATE_TIME ( #141, #118 ) ;
#139 = EDGE_CURVE ( 'NONE', #129, #156, #171, .T. ) ;
#140 = APPLICATION_CONTEXT ( 'configuration controlled 3d designs of mechanical parts and assemblies' ) ;
#141 = DATE_AND_TIME ( #48, #122 ) ;
#142 = CC_DESIGN_PERSON_AND_ORGANIZATION_ASSIGNMENT ( #56, #165, ( #16 ) ) ;
#143 = VERTEX_POINT ( 'NONE', #40 ) ;
#144 = DIRECTION ( 'NONE',  ( 1.000000000000000000, 0.000000000000000000, 0.000000000000000000 ) ) ;
#145 = DESIGN_CONTEXT ( 'detailed design', #4, 'design' ) ;
#146 = PRODUCT_DEFINITION_SHAPE ( 'NONE', 'NONE',  #16 ) ;
#147 = DIRECTION ( 'NONE',  ( 0.000000000000000000, 0.000000000000000000, 1.000000000000000000 ) ) ;
#148 = DIRECTION ( 'NONE',  ( -0.000000000000000000, -0.000000000000000000, -1.000000000000000000 ) ) ;
#149 = CARTESIAN_POINT ( 'NONE',  ( 12.50000000000000000, 1.530808498934191521E-15, 1.000000000000000000 ) ) ;
#150 = AXIS2_PLACEMENT_3D ( 'NONE', #131, #24, #126 ) ;
#151 =( LENGTH_UNIT ( ) NAMED_UNIT ( * ) SI_UNIT ( .MILLI., .METRE. ) );
#152 = APPLICATION_PROTOCOL_DEFINITION ( 'international standard', 'config_control_design', 1994, #140 ) ;
#153 = PERSON_AND_ORGANIZATION ( #1, #130 ) ;
#154 = AXIS2_PLACEMENT_3D ( 'NONE', #158, #12, #96 ) ;
#155 = CYLINDRICAL_SURFACE ( 'NONE', #164, 12.50000000000000000 ) ;
#156 = VERTEX_POINT ( 'NONE', #174 ) ;
#157 = ORIENTED_EDGE ( 'NONE', *, *, #97, .F. ) ;
#158 = CARTESIAN_POINT ( 'NONE',  ( 0.000000000000000000, 0.000000000000000000, 0.000000000000000000 ) ) ;
#159 = LOCAL_TIME ( 10, 56, 38.00000000000000000, #3 ) ;
#160 = COORDINATED_UNIVERSAL_TIME_OFFSET ( 5, 0, .BEHIND. ) ;
#161 = DIRECTION ( 'NONE',  ( 0.000000000000000000, 0.000000000000000000, 1.000000000000000000 ) ) ;
#162 = SECURITY_CLASSIFICATION_LEVEL ( 'unclassified' ) ;
#163 = PERSON_AND_ORGANIZATION ( #1, #130 ) ;
#164 = AXIS2_PLACEMENT_3D ( 'NONE', #34, #116, #170 ) ;
#165 = PERSON_AND_ORGANIZATION_ROLE ( 'creator' ) ;
#166 = LOCAL_TIME ( 10, 56, 38.00000000000000000, #100 ) ;
#167 = CIRCLE ( 'NONE', #13, 12.50000000000000000 ) ;
#168 = EDGE_LOOP ( 'NONE', ( #102, #115, #75, #50 ) ) ;
#169 = ADVANCED_FACE ( 'NONE', ( #105 ), #15, .F. ) ;
#170 = DIRECTION ( 'NONE',  ( -1.000000000000000000, 0.000000000000000000, 0.000000000000000000 ) ) ;
#171 = LINE ( 'NONE', #106, #94 ) ;
#172 = CARTESIAN_POINT ( 'NONE',  ( 0.000000000000000000, 0.000000000000000000, 0.000000000000000000 ) ) ;
#173 = CC_DESIGN_PERSON_AND_ORGANIZATION_ASSIGNMENT ( #6, #61, ( #127 ) ) ;
#174 = CARTESIAN_POINT ( 'NONE',  ( 12.50000000000000000, 1.530808498934191521E-15, 0.000000000000000000 ) ) ;
#175 = CARTESIAN_POINT ( 'NONE',  ( 0.000000000000000000, 0.000000000000000000, 0.000000000000000000 ) ) ;
ENDSEC;
END-ISO-10303-21;
