ISO-10303-21;
HEADER;
FILE_DESCRIPTION (( 'STEP AP203' ),
    '1' );
FILE_NAME ('Web Model 48853_14812.step',
    '2020-10-07T17:30:39',
    ( '' ),
    ( '' ),
    'SwSTEP 2.0',
    'SolidWorks 2018',
    '' );
FILE_SCHEMA (( 'CONFIG_CONTROL_DESIGN' ));
ENDSEC;

DATA;
#1 = CC_DESIGN_PERSON_AND_ORGANIZATION_ASSIGNMENT ( #35, #55, ( #43 ) ) ;
#2 = ADVANCED_FACE ( 'NONE', ( #46 ), #13, .T. ) ;
#3 = CALENDAR_DATE ( 2020, 7, 10 ) ;
#4 = SHAPE_DEFINITION_REPRESENTATION ( #158, #42 ) ;
#5 = DIRECTION ( 'NONE',  ( 0.0000000000000000000, 0.0000000000000000000, 1.000000000000000000 ) ) ;
#6 = DIRECTION ( 'NONE',  ( 1.000000000000000000, 0.0000000000000000000, 0.0000000000000000000 ) ) ;
#7 = ORIENTED_EDGE ( 'NONE', *, *, #28, .F. ) ;
#8 = PERSON_AND_ORGANIZATION_ROLE ( 'creator' ) ;
#9 = DATE_AND_TIME ( #53, #155 ) ;
#10 = AXIS2_PLACEMENT_3D ( 'NONE', #127, #32, #23 ) ;
#11 = PERSON ( 'UNSPECIFIED', 'UNSPECIFIED', 'UNSPECIFIED', ('UNSPECIFIED'), ('UNSPECIFIED'), ('UNSPECIFIED') ) ;
#12 = COORDINATED_UNIVERSAL_TIME_OFFSET ( 5, 0, .BEHIND. ) ;
#13 = CYLINDRICAL_SURFACE ( 'NONE', #64, 2.499999999999998668 ) ;
#14 = DATE_TIME_ROLE ( 'creation_date' ) ;
#15 = UNCERTAINTY_MEASURE_WITH_UNIT (LENGTH_MEASURE( 1.000000000000000082E-05 ), #116, 'distance_accuracy_value', 'NONE');
#16 = CC_DESIGN_APPROVAL ( #87, ( #135 ) ) ;
#17 = DATE_AND_TIME ( #90, #161 ) ;
#18 = ORIENTED_EDGE ( 'NONE', *, *, #20, .T. ) ;
#19 = DATE_AND_TIME ( #128, #122 ) ;
#20 = EDGE_CURVE ( 'NONE', #45, #139, #131, .T. ) ;
#21 = CARTESIAN_POINT ( 'NONE',  ( -2.499999999999998668, 0.0000000000000000000, 0.5000000000000000000 ) ) ;
#22 = CARTESIAN_POINT ( 'NONE',  ( 0.0000000000000000000, 0.0000000000000000000, 0.5000000000000000000 ) ) ;
#23 = DIRECTION ( 'NONE',  ( 1.000000000000000000, 0.0000000000000000000, 0.0000000000000000000 ) ) ;
#24 = COORDINATED_UNIVERSAL_TIME_OFFSET ( 5, 0, .BEHIND. ) ;
#25 = DIRECTION ( 'NONE',  ( 0.0000000000000000000, 0.0000000000000000000, 1.000000000000000000 ) ) ;
#26 = CARTESIAN_POINT ( 'NONE',  ( -2.499999999999998668, 0.0000000000000000000, -0.5000000000000000000 ) ) ;
#27 = DATE_AND_TIME ( #3, #148 ) ;
#28 = EDGE_CURVE ( 'NONE', #139, #45, #112, .T. ) ;
#29 = EDGE_LOOP ( 'NONE', ( #7, #41 ) ) ;
#30 = PERSON_AND_ORGANIZATION ( #11, #107 ) ;
#31 = DIRECTION ( 'NONE',  ( -0.0000000000000000000, -0.0000000000000000000, -1.000000000000000000 ) ) ;
#32 = DIRECTION ( 'NONE',  ( 0.0000000000000000000, 0.0000000000000000000, 1.000000000000000000 ) ) ;
#33 = VERTEX_POINT ( 'NONE', #167 ) ;
#34 =( NAMED_UNIT ( * ) PLANE_ANGLE_UNIT ( ) SI_UNIT ( $, .RADIAN. ) );
#35 = PERSON_AND_ORGANIZATION ( #11, #107 ) ;
#36 = AXIS2_PLACEMENT_3D ( 'NONE', #22, #5, #101 ) ;
#37 = DIRECTION ( 'NONE',  ( -1.000000000000000000, 0.0000000000000000000, 0.0000000000000000000 ) ) ;
#38 = LINE ( 'NONE', #170, #85 ) ;
#39 = APPLICATION_CONTEXT ( 'configuration controlled 3d designs of mechanical parts and assemblies' ) ;
#40 = APPROVAL_STATUS ( 'not_yet_approved' ) ;
#41 = ORIENTED_EDGE ( 'NONE', *, *, #20, .F. ) ;
#42 = ADVANCED_BREP_SHAPE_REPRESENTATION ( 'Web Model 48853_14812', ( #63, #126 ), #108 ) ;
#43 = PRODUCT ( 'Web Model 48853_14812', 'Web Model 48853_14812', '', ( #168 ) ) ;
#44 = PERSON_AND_ORGANIZATION ( #11, #107 ) ;
#45 = VERTEX_POINT ( 'NONE', #79 ) ;
#46 = FACE_OUTER_BOUND ( 'NONE', #124, .T. ) ;
#47 = CALENDAR_DATE ( 2020, 7, 10 ) ;
#48 = LINE ( 'NONE', #21, #169 ) ;
#49 = DIRECTION ( 'NONE',  ( 0.0000000000000000000, 0.0000000000000000000, 1.000000000000000000 ) ) ;
#50 = DIRECTION ( 'NONE',  ( 0.0000000000000000000, 0.0000000000000000000, 1.000000000000000000 ) ) ;
#51 = CARTESIAN_POINT ( 'NONE',  ( 0.0000000000000000000, 0.0000000000000000000, -0.5000000000000000000 ) ) ;
#52 = EDGE_LOOP ( 'NONE', ( #88, #146 ) ) ;
#53 = CALENDAR_DATE ( 2020, 7, 10 ) ;
#54 = APPROVAL_PERSON_ORGANIZATION ( #94, #125, #132 ) ;
#55 = PERSON_AND_ORGANIZATION_ROLE ( 'design_owner' ) ;
#56 = CARTESIAN_POINT ( 'NONE',  ( 0.0000000000000000000, 0.0000000000000000000, 0.0000000000000000000 ) ) ;
#57 = SECURITY_CLASSIFICATION_LEVEL ( 'unclassified' ) ;
#58 = CARTESIAN_POINT ( 'NONE',  ( 0.0000000000000000000, 0.0000000000000000000, 0.5000000000000000000 ) ) ;
#59 = APPROVAL_ROLE ( '' ) ;
#60 = EDGE_CURVE ( 'NONE', #33, #72, #82, .T. ) ;
#61 = PERSON_AND_ORGANIZATION ( #11, #107 ) ;
#62 = COORDINATED_UNIVERSAL_TIME_OFFSET ( 5, 0, .BEHIND. ) ;
#63 = MANIFOLD_SOLID_BREP ( 'Boss-Extrude1', #103 ) ;
#64 = AXIS2_PLACEMENT_3D ( 'NONE', #115, #65, #154 ) ;
#65 = DIRECTION ( 'NONE',  ( -0.0000000000000000000, -0.0000000000000000000, -1.000000000000000000 ) ) ;
#66 = ORIENTED_EDGE ( 'NONE', *, *, #102, .F. ) ;
#67 = DIRECTION ( 'NONE',  ( 1.000000000000000000, 0.0000000000000000000, 0.0000000000000000000 ) ) ;
#68 = APPLICATION_CONTEXT ( 'configuration controlled 3d designs of mechanical parts and assemblies' ) ;
#69 = CC_DESIGN_PERSON_AND_ORGANIZATION_ASSIGNMENT ( #61, #96, ( #135 ) ) ;
#70 = DATE_TIME_ROLE ( 'classification_date' ) ;
#71 = DIRECTION ( 'NONE',  ( 0.0000000000000000000, 0.0000000000000000000, 1.000000000000000000 ) ) ;
#72 = VERTEX_POINT ( 'NONE', #100 ) ;
#73 = ORIENTED_EDGE ( 'NONE', *, *, #28, .T. ) ;
#74 = EDGE_LOOP ( 'NONE', ( #76, #84, #98, #73 ) ) ;
#75 = APPROVAL ( #104, 'UNSPECIFIED' ) ;
#76 = ORIENTED_EDGE ( 'NONE', *, *, #114, .F. ) ;
#77 = FACE_OUTER_BOUND ( 'NONE', #74, .T. ) ;
#78 = CARTESIAN_POINT ( 'NONE',  ( 0.0000000000000000000, 0.0000000000000000000, 0.5000000000000000000 ) ) ;
#79 = CARTESIAN_POINT ( 'NONE',  ( 2.499999999999998668, 3.061616997868381662E-16, -0.5000000000000000000 ) ) ;
#80 = APPLICATION_PROTOCOL_DEFINITION ( 'international standard', 'config_control_design', 1994, #39 ) ;
#81 = APPROVAL_PERSON_ORGANIZATION ( #44, #75, #59 ) ;
#82 = CIRCLE ( 'NONE', #147, 2.499999999999998668 ) ;
#83 = CC_DESIGN_APPROVAL ( #75, ( #145 ) ) ;
#84 = ORIENTED_EDGE ( 'NONE', *, *, #97, .F. ) ;
#85 = VECTOR ( 'NONE', #130, 1000.000000000000000 ) ;
#86 = FACE_OUTER_BOUND ( 'NONE', #29, .T. ) ;
#87 = APPROVAL ( #40, 'UNSPECIFIED' ) ;
#88 = ORIENTED_EDGE ( 'NONE', *, *, #97, .T. ) ;
#89 = ADVANCED_FACE ( 'NONE', ( #86 ), #165, .F. ) ;
#90 = CALENDAR_DATE ( 2020, 7, 10 ) ;
#91 = CARTESIAN_POINT ( 'NONE',  ( 0.0000000000000000000, 0.0000000000000000000, -0.5000000000000000000 ) ) ;
#92 = SECURITY_CLASSIFICATION ( '', '', #57 ) ;
#93 = DIRECTION ( 'NONE',  ( 1.000000000000000000, 0.0000000000000000000, -0.0000000000000000000 ) ) ;
#94 = PERSON_AND_ORGANIZATION ( #11, #107 ) ;
#95 = DIRECTION ( 'NONE',  ( -0.0000000000000000000, -0.0000000000000000000, -1.000000000000000000 ) ) ;
#96 = PERSON_AND_ORGANIZATION_ROLE ( 'creator' ) ;
#97 = EDGE_CURVE ( 'NONE', #72, #33, #149, .T. ) ;
#98 = ORIENTED_EDGE ( 'NONE', *, *, #102, .T. ) ;
#99 = CC_DESIGN_PERSON_AND_ORGANIZATION_ASSIGNMENT ( #144, #157, ( #92 ) ) ;
#100 = CARTESIAN_POINT ( 'NONE',  ( -2.499999999999998668, 0.0000000000000000000, 0.5000000000000000000 ) ) ;
#101 = DIRECTION ( 'NONE',  ( 1.000000000000000000, 0.0000000000000000000, 0.0000000000000000000 ) ) ;
#102 = EDGE_CURVE ( 'NONE', #72, #139, #48, .T. ) ;
#103 = CLOSED_SHELL ( 'NONE', ( #2, #110, #109, #89 ) ) ;
#104 = APPROVAL_STATUS ( 'not_yet_approved' ) ;
#105 = CC_DESIGN_DATE_AND_TIME_ASSIGNMENT ( #27, #70, ( #92 ) ) ;
#106 = ORIENTED_EDGE ( 'NONE', *, *, #114, .T. ) ;
#107 = ORGANIZATION ( 'UNSPECIFIED', 'UNSPECIFIED', '' ) ;
#108 =( GEOMETRIC_REPRESENTATION_CONTEXT ( 3 ) GLOBAL_UNCERTAINTY_ASSIGNED_CONTEXT ( ( #15 ) ) GLOBAL_UNIT_ASSIGNED_CONTEXT ( ( #116, #34, #119 ) ) REPRESENTATION_CONTEXT ( 'NONE', 'WORKASPACE' ) );
#109 = ADVANCED_FACE ( 'NONE', ( #120 ), #117, .T. ) ;
#110 = ADVANCED_FACE ( 'NONE', ( #77 ), #142, .T. ) ;
#111 = COORDINATED_UNIVERSAL_TIME_OFFSET ( 5, 0, .BEHIND. ) ;
#112 = CIRCLE ( 'NONE', #162, 2.499999999999998668 ) ;
#113 = CARTESIAN_POINT ( 'NONE',  ( 0.0000000000000000000, 0.0000000000000000000, 0.5000000000000000000 ) ) ;
#114 = EDGE_CURVE ( 'NONE', #33, #45, #38, .T. ) ;
#115 = CARTESIAN_POINT ( 'NONE',  ( 0.0000000000000000000, 0.0000000000000000000, 0.5000000000000000000 ) ) ;
#116 =( LENGTH_UNIT ( ) NAMED_UNIT ( * ) SI_UNIT ( .MILLI., .METRE. ) );
#117 = PLANE ( 'NONE',  #134 ) ;
#118 = APPROVAL_DATE_TIME ( #152, #75 ) ;
#119 =( NAMED_UNIT ( * ) SI_UNIT ( $, .STERADIAN. ) SOLID_ANGLE_UNIT ( ) );
#120 = FACE_OUTER_BOUND ( 'NONE', #52, .T. ) ;
#121 = COORDINATED_UNIVERSAL_TIME_OFFSET ( 5, 0, .BEHIND. ) ;
#122 = LOCAL_TIME ( 13, 30, 39.00000000000000000, #62 ) ;
#123 = AXIS2_PLACEMENT_3D ( 'NONE', #113, #95, #37 ) ;
#124 = EDGE_LOOP ( 'NONE', ( #129, #106, #18, #66 ) ) ;
#125 = APPROVAL ( #159, 'UNSPECIFIED' ) ;
#126 = AXIS2_PLACEMENT_3D ( 'NONE', #56, #25, #143 ) ;
#127 = CARTESIAN_POINT ( 'NONE',  ( 0.0000000000000000000, 0.0000000000000000000, -0.5000000000000000000 ) ) ;
#128 = CALENDAR_DATE ( 2020, 7, 10 ) ;
#129 = ORIENTED_EDGE ( 'NONE', *, *, #60, .F. ) ;
#130 = DIRECTION ( 'NONE',  ( -0.0000000000000000000, -0.0000000000000000000, -1.000000000000000000 ) ) ;
#131 = CIRCLE ( 'NONE', #10, 2.499999999999998668 ) ;
#132 = APPROVAL_ROLE ( '' ) ;
#133 = CC_DESIGN_APPROVAL ( #125, ( #92 ) ) ;
#134 = AXIS2_PLACEMENT_3D ( 'NONE', #58, #71, #140 ) ;
#135 = PRODUCT_DEFINITION ( 'UNKNOWN', '', #145, #166 ) ;
#136 = PERSON_AND_ORGANIZATION ( #11, #107 ) ;
#137 = DIRECTION ( 'NONE',  ( 0.0000000000000000000, 0.0000000000000000000, 1.000000000000000000 ) ) ;
#138 = CC_DESIGN_SECURITY_CLASSIFICATION ( #92, ( #145 ) ) ;
#139 = VERTEX_POINT ( 'NONE', #26 ) ;
#140 = DIRECTION ( 'NONE',  ( 1.000000000000000000, 0.0000000000000000000, -0.0000000000000000000 ) ) ;
#141 = PERSON_AND_ORGANIZATION_ROLE ( 'design_supplier' ) ;
#142 = CYLINDRICAL_SURFACE ( 'NONE', #123, 2.499999999999998668 ) ;
#143 = DIRECTION ( 'NONE',  ( 1.000000000000000000, 0.0000000000000000000, 0.0000000000000000000 ) ) ;
#144 = PERSON_AND_ORGANIZATION ( #11, #107 ) ;
#145 = PRODUCT_DEFINITION_FORMATION_WITH_SPECIFIED_SOURCE ( 'ANY', '', #43, .NOT_KNOWN. ) ;
#146 = ORIENTED_EDGE ( 'NONE', *, *, #60, .T. ) ;
#147 = AXIS2_PLACEMENT_3D ( 'NONE', #78, #137, #6 ) ;
#148 = LOCAL_TIME ( 13, 30, 39.00000000000000000, #12 ) ;
#149 = CIRCLE ( 'NONE', #36, 2.499999999999998668 ) ;
#150 = PRODUCT_RELATED_PRODUCT_CATEGORY ( 'detail', '', ( #43 ) ) ;
#151 = LOCAL_TIME ( 13, 30, 39.00000000000000000, #121 ) ;
#152 = DATE_AND_TIME ( #47, #151 ) ;
#153 = APPROVAL_DATE_TIME ( #17, #87 ) ;
#154 = DIRECTION ( 'NONE',  ( -1.000000000000000000, 0.0000000000000000000, 0.0000000000000000000 ) ) ;
#155 = LOCAL_TIME ( 13, 30, 39.00000000000000000, #111 ) ;
#156 = AXIS2_PLACEMENT_3D ( 'NONE', #91, #49, #93 ) ;
#157 = PERSON_AND_ORGANIZATION_ROLE ( 'classification_officer' ) ;
#158 = PRODUCT_DEFINITION_SHAPE ( 'NONE', 'NONE',  #135 ) ;
#159 = APPROVAL_STATUS ( 'not_yet_approved' ) ;
#160 = APPROVAL_ROLE ( '' ) ;
#161 = LOCAL_TIME ( 13, 30, 39.00000000000000000, #24 ) ;
#162 = AXIS2_PLACEMENT_3D ( 'NONE', #51, #50, #67 ) ;
#163 = CC_DESIGN_DATE_AND_TIME_ASSIGNMENT ( #9, #14, ( #135 ) ) ;
#164 = APPROVAL_PERSON_ORGANIZATION ( #30, #87, #160 ) ;
#165 = PLANE ( 'NONE',  #156 ) ;
#166 = DESIGN_CONTEXT ( 'detailed design', #68, 'design' ) ;
#167 = CARTESIAN_POINT ( 'NONE',  ( 2.499999999999998668, 3.061616997868381662E-16, 0.5000000000000000000 ) ) ;
#168 = MECHANICAL_CONTEXT ( 'NONE', #39, 'mechanical' ) ;
#169 = VECTOR ( 'NONE', #31, 1000.000000000000000 ) ;
#170 = CARTESIAN_POINT ( 'NONE',  ( 2.499999999999998668, 3.061616997868381662E-16, 0.5000000000000000000 ) ) ;
#171 = APPLICATION_PROTOCOL_DEFINITION ( 'international standard', 'config_control_design', 1994, #68 ) ;
#172 = CC_DESIGN_PERSON_AND_ORGANIZATION_ASSIGNMENT ( #136, #141, ( #145 ) ) ;
#173 = APPROVAL_DATE_TIME ( #19, #125 ) ;
#174 = CC_DESIGN_PERSON_AND_ORGANIZATION_ASSIGNMENT ( #175, #8, ( #145 ) ) ;
#175 = PERSON_AND_ORGANIZATION ( #11, #107 ) ;
ENDSEC;
END-ISO-10303-21;
