ISO-10303-21;
HEADER;
FILE_DESCRIPTION (( 'STEP AP203' ),
    '1' );
FILE_NAME ('Web Model 43818_46613.step',
    '2017-04-10T18:04:31',
    ( '' ),
    ( '' ),
    'SwSTEP 2.0',
    'SolidWorks 2016',
    '' );
FILE_SCHEMA (( 'CONFIG_CONTROL_DESIGN' ));
ENDSEC;

DATA;
#1 = APPROVAL_PERSON_ORGANIZATION ( #183, #182, #83 ) ;
#2 = DIRECTION ( 'NONE',  ( -0.0000000000000000000, -0.0000000000000000000, -1.000000000000000000 ) ) ;
#3 = DIRECTION ( 'NONE',  ( -0.0000000000000000000, 1.000000000000000000, -0.0000000000000000000 ) ) ;
#4 = CARTESIAN_POINT ( 'NONE',  ( -25.00000000000000000, 25.00000000000000000, 0.5000000000000000000 ) ) ;
#5 = EDGE_CURVE ( 'NONE', #116, #190, #113, .T. ) ;
#6 =( NAMED_UNIT ( * ) PLANE_ANGLE_UNIT ( ) SI_UNIT ( $, .RADIAN. ) );
#7 = DIRECTION ( 'NONE',  ( 0.0000000000000000000, 0.0000000000000000000, 1.000000000000000000 ) ) ;
#8 = FACE_OUTER_BOUND ( 'NONE', #20, .T. ) ;
#9 = CARTESIAN_POINT ( 'NONE',  ( 0.0000000000000000000, 0.0000000000000000000, 0.5000000000000000000 ) ) ;
#10 = ORIENTED_EDGE ( 'NONE', *, *, #74, .T. ) ;
#11 = PERSON ( 'UNSPECIFIED', 'UNSPECIFIED', 'UNSPECIFIED', ('UNSPECIFIED'), ('UNSPECIFIED'), ('UNSPECIFIED') ) ;
#12 = APPROVAL_PERSON_ORGANIZATION ( #180, #138, #227 ) ;
#13 = DATE_AND_TIME ( #189, #146 ) ;
#14 = AXIS2_PLACEMENT_3D ( 'NONE', #29, #63, #80 ) ;
#15 = CARTESIAN_POINT ( 'NONE',  ( -25.00000000000000000, 25.00000000000000000, 0.5000000000000000000 ) ) ;
#16 = EDGE_CURVE ( 'NONE', #101, #171, #135, .T. ) ;
#17 = DIRECTION ( 'NONE',  ( -0.0000000000000000000, 1.000000000000000000, -0.0000000000000000000 ) ) ;
#18 = CARTESIAN_POINT ( 'NONE',  ( 25.00000000000000000, 25.00000000000000000, 0.5000000000000000000 ) ) ;
#19 = COORDINATED_UNIVERSAL_TIME_OFFSET ( 5, 0, .BEHIND. ) ;
#20 = EDGE_LOOP ( 'NONE', ( #91, #46, #108, #236 ) ) ;
#21 = PERSON_AND_ORGANIZATION_ROLE ( 'creator' ) ;
#22 = CC_DESIGN_PERSON_AND_ORGANIZATION_ASSIGNMENT ( #79, #21, ( #111 ) ) ;
#23 = FACE_OUTER_BOUND ( 'NONE', #88, .T. ) ;
#24 = EDGE_LOOP ( 'NONE', ( #77, #198, #166, #70 ) ) ;
#25 = APPROVAL_DATE_TIME ( #13, #224 ) ;
#26 = CARTESIAN_POINT ( 'NONE',  ( 25.00000000000000000, 25.00000000000000000, 0.5000000000000000000 ) ) ;
#27 = EDGE_CURVE ( 'NONE', #68, #226, #58, .T. ) ;
#28 = DIRECTION ( 'NONE',  ( 0.0000000000000000000, 0.0000000000000000000, 1.000000000000000000 ) ) ;
#29 = CARTESIAN_POINT ( 'NONE',  ( -25.00000000000000000, 25.00000000000000000, 0.5000000000000000000 ) ) ;
#30 = LOCAL_TIME ( 14, 4, 31.00000000000000000, #19 ) ;
#31 = CARTESIAN_POINT ( 'NONE',  ( 25.00000000000000000, 25.00000000000000000, -0.5000000000000000000 ) ) ;
#32 = DATE_AND_TIME ( #143, #76 ) ;
#33 = PLANE ( 'NONE',  #59 ) ;
#34 = EDGE_CURVE ( 'NONE', #178, #139, #212, .T. ) ;
#35 = EDGE_CURVE ( 'NONE', #226, #190, #144, .T. ) ;
#36 = ORIENTED_EDGE ( 'NONE', *, *, #35, .F. ) ;
#37 = DIRECTION ( 'NONE',  ( 1.000000000000000000, 0.0000000000000000000, 0.0000000000000000000 ) ) ;
#38 = LINE ( 'NONE', #65, #137 ) ;
#39 =( NAMED_UNIT ( * ) SI_UNIT ( $, .STERADIAN. ) SOLID_ANGLE_UNIT ( ) );
#40 = CARTESIAN_POINT ( 'NONE',  ( 25.00000000000000000, 25.00000000000000000, 0.5000000000000000000 ) ) ;
#41 = APPROVAL_STATUS ( 'not_yet_approved' ) ;
#42 = COORDINATED_UNIVERSAL_TIME_OFFSET ( 5, 0, .BEHIND. ) ;
#43 = CC_DESIGN_APPROVAL ( #138, ( #111 ) ) ;
#44 = DIRECTION ( 'NONE',  ( 0.0000000000000000000, -1.000000000000000000, 0.0000000000000000000 ) ) ;
#45 = PERSON_AND_ORGANIZATION_ROLE ( 'design_supplier' ) ;
#46 = ORIENTED_EDGE ( 'NONE', *, *, #214, .T. ) ;
#47 = CARTESIAN_POINT ( 'NONE',  ( 0.0000000000000000000, 0.0000000000000000000, 0.0000000000000000000 ) ) ;
#48 = PLANE ( 'NONE',  #228 ) ;
#49 = APPLICATION_CONTEXT ( 'configuration controlled 3d designs of mechanical parts and assemblies' ) ;
#50 = ORIENTED_EDGE ( 'NONE', *, *, #5, .F. ) ;
#51 = VECTOR ( 'NONE', #3, 1000.000000000000000 ) ;
#52 = SECURITY_CLASSIFICATION ( '', '', #109 ) ;
#53 = PERSON_AND_ORGANIZATION ( #11, #173 ) ;
#54 = ORIENTED_EDGE ( 'NONE', *, *, #5, .T. ) ;
#55 = PLANE ( 'NONE',  #187 ) ;
#56 = DIRECTION ( 'NONE',  ( 1.000000000000000000, 0.0000000000000000000, 0.0000000000000000000 ) ) ;
#57 = DIRECTION ( 'NONE',  ( -0.0000000000000000000, -0.0000000000000000000, -1.000000000000000000 ) ) ;
#58 = LINE ( 'NONE', #61, #102 ) ;
#59 = AXIS2_PLACEMENT_3D ( 'NONE', #18, #211, #28 ) ;
#60 = FACE_OUTER_BOUND ( 'NONE', #71, .T. ) ;
#61 = CARTESIAN_POINT ( 'NONE',  ( -25.00000000000000000, -25.00000000000000000, 0.5000000000000000000 ) ) ;
#62 = CC_DESIGN_PERSON_AND_ORGANIZATION_ASSIGNMENT ( #53, #112, ( #52 ) ) ;
#63 = DIRECTION ( 'NONE',  ( 1.000000000000000000, 0.0000000000000000000, -0.0000000000000000000 ) ) ;
#64 = LINE ( 'NONE', #185, #66 ) ;
#65 = CARTESIAN_POINT ( 'NONE',  ( -25.00000000000000000, 25.00000000000000000, -0.5000000000000000000 ) ) ;
#66 = VECTOR ( 'NONE', #57, 1000.000000000000000 ) ;
#67 = ORIENTED_EDGE ( 'NONE', *, *, #99, .F. ) ;
#68 = VERTEX_POINT ( 'NONE', #218 ) ;
#69 = APPLICATION_PROTOCOL_DEFINITION ( 'international standard', 'config_control_design', 1994, #49 ) ;
#70 = ORIENTED_EDGE ( 'NONE', *, *, #34, .T. ) ;
#71 = EDGE_LOOP ( 'NONE', ( #81, #50, #174, #125 ) ) ;
#72 = CC_DESIGN_DATE_AND_TIME_ASSIGNMENT ( #32, #179, ( #111 ) ) ;
#73 = DIRECTION ( 'NONE',  ( 0.0000000000000000000, -1.000000000000000000, 0.0000000000000000000 ) ) ;
#74 = EDGE_CURVE ( 'NONE', #171, #116, #92, .T. ) ;
#75 = VECTOR ( 'NONE', #73, 1000.000000000000000 ) ;
#76 = LOCAL_TIME ( 14, 4, 31.00000000000000000, #193 ) ;
#77 = ORIENTED_EDGE ( 'NONE', *, *, #223, .T. ) ;
#78 = CARTESIAN_POINT ( 'NONE',  ( 25.00000000000000000, -25.00000000000000000, -0.5000000000000000000 ) ) ;
#79 = PERSON_AND_ORGANIZATION ( #11, #173 ) ;
#80 = DIRECTION ( 'NONE',  ( -0.0000000000000000000, 0.0000000000000000000, -1.000000000000000000 ) ) ;
#81 = ORIENTED_EDGE ( 'NONE', *, *, #215, .F. ) ;
#82 = CARTESIAN_POINT ( 'NONE',  ( 0.0000000000000000000, 0.0000000000000000000, -0.5000000000000000000 ) ) ;
#83 = APPROVAL_ROLE ( '' ) ;
#84 = COORDINATED_UNIVERSAL_TIME_OFFSET ( 5, 0, .BEHIND. ) ;
#85 = ADVANCED_BREP_SHAPE_REPRESENTATION ( 'Web Model 43818_46613', ( #127, #142 ), #89 ) ;
#86 = CC_DESIGN_APPROVAL ( #224, ( #52 ) ) ;
#87 = CARTESIAN_POINT ( 'NONE',  ( 25.00000000000000000, 25.00000000000000000, -0.5000000000000000000 ) ) ;
#88 = EDGE_LOOP ( 'NONE', ( #54, #36, #130, #148 ) ) ;
#89 =( GEOMETRIC_REPRESENTATION_CONTEXT ( 3 ) GLOBAL_UNCERTAINTY_ASSIGNED_CONTEXT ( ( #97 ) ) GLOBAL_UNIT_ASSIGNED_CONTEXT ( ( #115, #6, #39 ) ) REPRESENTATION_CONTEXT ( 'NONE', 'WORKASPACE' ) );
#90 = CARTESIAN_POINT ( 'NONE',  ( -25.00000000000000000, 25.00000000000000000, -0.5000000000000000000 ) ) ;
#91 = ORIENTED_EDGE ( 'NONE', *, *, #99, .T. ) ;
#92 = LINE ( 'NONE', #140, #75 ) ;
#93 = CC_DESIGN_PERSON_AND_ORGANIZATION_ASSIGNMENT ( #220, #45, ( #168 ) ) ;
#94 = FACE_OUTER_BOUND ( 'NONE', #121, .T. ) ;
#95 = MECHANICAL_CONTEXT ( 'NONE', #216, 'mechanical' ) ;
#96 = VECTOR ( 'NONE', #44, 1000.000000000000000 ) ;
#97 = UNCERTAINTY_MEASURE_WITH_UNIT (LENGTH_MEASURE( 1.000000000000000100E-005 ), #115, 'distance_accuracy_value', 'NONE');
#98 = APPROVAL_STATUS ( 'not_yet_approved' ) ;
#99 = EDGE_CURVE ( 'NONE', #226, #178, #219, .T. ) ;
#100 = COORDINATED_UNIVERSAL_TIME_OFFSET ( 5, 0, .BEHIND. ) ;
#101 = VERTEX_POINT ( 'NONE', #169 ) ;
#102 = VECTOR ( 'NONE', #56, 1000.000000000000000 ) ;
#103 = DATE_AND_TIME ( #233, #170 ) ;
#104 = EDGE_LOOP ( 'NONE', ( #10, #172, #163, #209 ) ) ;
#105 = VECTOR ( 'NONE', #225, 1000.000000000000000 ) ;
#106 = DIRECTION ( 'NONE',  ( -0.0000000000000000000, 0.0000000000000000000, 1.000000000000000000 ) ) ;
#107 = CARTESIAN_POINT ( 'NONE',  ( -25.00000000000000000, -25.00000000000000000, -0.5000000000000000000 ) ) ;
#108 = ORIENTED_EDGE ( 'NONE', *, *, #122, .T. ) ;
#109 = SECURITY_CLASSIFICATION_LEVEL ( 'unclassified' ) ;
#110 = APPROVAL_STATUS ( 'not_yet_approved' ) ;
#111 = PRODUCT_DEFINITION ( 'UNKNOWN', '', #168, #181 ) ;
#112 = PERSON_AND_ORGANIZATION_ROLE ( 'classification_officer' ) ;
#113 = LINE ( 'NONE', #107, #105 ) ;
#114 = CC_DESIGN_PERSON_AND_ORGANIZATION_ASSIGNMENT ( #191, #128, ( #197 ) ) ;
#115 =( LENGTH_UNIT ( ) NAMED_UNIT ( * ) SI_UNIT ( .MILLI., .METRE. ) );
#116 = VERTEX_POINT ( 'NONE', #206 ) ;
#117 = PERSON_AND_ORGANIZATION_ROLE ( 'creator' ) ;
#118 = VECTOR ( 'NONE', #153, 1000.000000000000000 ) ;
#119 = APPROVAL_PERSON_ORGANIZATION ( #124, #224, #141 ) ;
#120 = DATE_AND_TIME ( #217, #30 ) ;
#121 = EDGE_LOOP ( 'NONE', ( #207, #204, #67, #194 ) ) ;
#122 = EDGE_CURVE ( 'NONE', #101, #68, #145, .T. ) ;
#123 = DIRECTION ( 'NONE',  ( 0.0000000000000000000, -1.000000000000000000, 0.0000000000000000000 ) ) ;
#124 = PERSON_AND_ORGANIZATION ( #11, #173 ) ;
#125 = ORIENTED_EDGE ( 'NONE', *, *, #223, .F. ) ;
#126 = PLANE ( 'NONE',  #165 ) ;
#127 = MANIFOLD_SOLID_BREP ( 'Boss-Extrude1', #136 ) ;
#128 = PERSON_AND_ORGANIZATION_ROLE ( 'design_owner' ) ;
#129 = ADVANCED_FACE ( 'NONE', ( #8 ), #126, .T. ) ;
#130 = ORIENTED_EDGE ( 'NONE', *, *, #27, .F. ) ;
#131 = CARTESIAN_POINT ( 'NONE',  ( -25.00000000000000000, -25.00000000000000000, 0.5000000000000000000 ) ) ;
#132 = CC_DESIGN_PERSON_AND_ORGANIZATION_ASSIGNMENT ( #202, #117, ( #168 ) ) ;
#133 = DIRECTION ( 'NONE',  ( 1.000000000000000000, 0.0000000000000000000, 0.0000000000000000000 ) ) ;
#134 = CALENDAR_DATE ( 2017, 10, 4 ) ;
#135 = LINE ( 'NONE', #15, #156 ) ;
#136 = CLOSED_SHELL ( 'NONE', ( #213, #201, #229, #186, #129, #205 ) ) ;
#137 = VECTOR ( 'NONE', #160, 1000.000000000000000 ) ;
#138 = APPROVAL ( #41, 'UNSPECIFIED' ) ;
#139 = VERTEX_POINT ( 'NONE', #87 ) ;
#140 = CARTESIAN_POINT ( 'NONE',  ( -25.00000000000000000, 25.00000000000000000, -0.5000000000000000000 ) ) ;
#141 = APPROVAL_ROLE ( '' ) ;
#142 = AXIS2_PLACEMENT_3D ( 'NONE', #47, #7, #231 ) ;
#143 = CALENDAR_DATE ( 2017, 10, 4 ) ;
#144 = LINE ( 'NONE', #175, #118 ) ;
#145 = LINE ( 'NONE', #4, #96 ) ;
#146 = LOCAL_TIME ( 14, 4, 31.00000000000000000, #42 ) ;
#147 = PRODUCT_RELATED_PRODUCT_CATEGORY ( 'detail', '', ( #197 ) ) ;
#148 = ORIENTED_EDGE ( 'NONE', *, *, #159, .T. ) ;
#149 = FACE_OUTER_BOUND ( 'NONE', #104, .T. ) ;
#150 = VECTOR ( 'NONE', #152, 1000.000000000000000 ) ;
#151 = PRODUCT_DEFINITION_SHAPE ( 'NONE', 'NONE',  #111 ) ;
#152 = DIRECTION ( 'NONE',  ( -1.000000000000000000, -0.0000000000000000000, -0.0000000000000000000 ) ) ;
#153 = DIRECTION ( 'NONE',  ( -0.0000000000000000000, -0.0000000000000000000, -1.000000000000000000 ) ) ;
#154 = FACE_OUTER_BOUND ( 'NONE', #24, .T. ) ;
#155 = VECTOR ( 'NONE', #2, 1000.000000000000000 ) ;
#156 = VECTOR ( 'NONE', #237, 1000.000000000000000 ) ;
#157 = LINE ( 'NONE', #164, #150 ) ;
#158 = CARTESIAN_POINT ( 'NONE',  ( 25.00000000000000000, -25.00000000000000000, 0.5000000000000000000 ) ) ;
#159 = EDGE_CURVE ( 'NONE', #68, #116, #64, .T. ) ;
#160 = DIRECTION ( 'NONE',  ( -1.000000000000000000, -0.0000000000000000000, -0.0000000000000000000 ) ) ;
#161 = CC_DESIGN_APPROVAL ( #182, ( #168 ) ) ;
#162 = CARTESIAN_POINT ( 'NONE',  ( 25.00000000000000000, 25.00000000000000000, 0.5000000000000000000 ) ) ;
#163 = ORIENTED_EDGE ( 'NONE', *, *, #122, .F. ) ;
#164 = CARTESIAN_POINT ( 'NONE',  ( -25.00000000000000000, 25.00000000000000000, 0.5000000000000000000 ) ) ;
#165 = AXIS2_PLACEMENT_3D ( 'NONE', #9, #106, #37 ) ;
#166 = ORIENTED_EDGE ( 'NONE', *, *, #214, .F. ) ;
#167 = APPROVAL_DATE_TIME ( #103, #138 ) ;
#168 = PRODUCT_DEFINITION_FORMATION_WITH_SPECIFIED_SOURCE ( 'ANY', '', #197, .NOT_KNOWN. ) ;
#169 = CARTESIAN_POINT ( 'NONE',  ( -25.00000000000000000, 25.00000000000000000, 0.5000000000000000000 ) ) ;
#170 = LOCAL_TIME ( 14, 4, 31.00000000000000000, #100 ) ;
#171 = VERTEX_POINT ( 'NONE', #90 ) ;
#172 = ORIENTED_EDGE ( 'NONE', *, *, #159, .F. ) ;
#173 = ORGANIZATION ( 'UNSPECIFIED', 'UNSPECIFIED', '' ) ;
#174 = ORIENTED_EDGE ( 'NONE', *, *, #74, .F. ) ;
#175 = CARTESIAN_POINT ( 'NONE',  ( 25.00000000000000000, -25.00000000000000000, 0.5000000000000000000 ) ) ;
#176 = DIRECTION ( 'NONE',  ( 0.0000000000000000000, 1.000000000000000000, 0.0000000000000000000 ) ) ;
#177 = LINE ( 'NONE', #31, #51 ) ;
#178 = VERTEX_POINT ( 'NONE', #40 ) ;
#179 = DATE_TIME_ROLE ( 'creation_date' ) ;
#180 = PERSON_AND_ORGANIZATION ( #11, #173 ) ;
#181 = DESIGN_CONTEXT ( 'detailed design', #49, 'design' ) ;
#182 = APPROVAL ( #110, 'UNSPECIFIED' ) ;
#183 = PERSON_AND_ORGANIZATION ( #11, #173 ) ;
#184 = LOCAL_TIME ( 14, 4, 31.00000000000000000, #84 ) ;
#185 = CARTESIAN_POINT ( 'NONE',  ( -25.00000000000000000, -25.00000000000000000, 0.5000000000000000000 ) ) ;
#186 = ADVANCED_FACE ( 'NONE', ( #23 ), #48, .F. ) ;
#187 = AXIS2_PLACEMENT_3D ( 'NONE', #200, #123, #203 ) ;
#188 = PLANE ( 'NONE',  #14 ) ;
#189 = CALENDAR_DATE ( 2017, 10, 4 ) ;
#190 = VERTEX_POINT ( 'NONE', #78 ) ;
#191 = PERSON_AND_ORGANIZATION ( #11, #173 ) ;
#192 = CC_DESIGN_DATE_AND_TIME_ASSIGNMENT ( #196, #195, ( #52 ) ) ;
#193 = COORDINATED_UNIVERSAL_TIME_OFFSET ( 5, 0, .BEHIND. ) ;
#194 = ORIENTED_EDGE ( 'NONE', *, *, #35, .T. ) ;
#195 = DATE_TIME_ROLE ( 'classification_date' ) ;
#196 = DATE_AND_TIME ( #134, #184 ) ;
#197 = PRODUCT ( 'Web Model 43818_46613', 'Web Model 43818_46613', '', ( #95 ) ) ;
#198 = ORIENTED_EDGE ( 'NONE', *, *, #16, .F. ) ;
#199 = APPROVAL_DATE_TIME ( #120, #182 ) ;
#200 = CARTESIAN_POINT ( 'NONE',  ( -25.00000000000000000, 25.00000000000000000, 0.5000000000000000000 ) ) ;
#201 = ADVANCED_FACE ( 'NONE', ( #154 ), #55, .F. ) ;
#202 = PERSON_AND_ORGANIZATION ( #11, #173 ) ;
#203 = DIRECTION ( 'NONE',  ( 0.0000000000000000000, -0.0000000000000000000, -1.000000000000000000 ) ) ;
#204 = ORIENTED_EDGE ( 'NONE', *, *, #34, .F. ) ;
#205 = ADVANCED_FACE ( 'NONE', ( #60 ), #210, .F. ) ;
#206 = CARTESIAN_POINT ( 'NONE',  ( -25.00000000000000000, -25.00000000000000000, -0.5000000000000000000 ) ) ;
#207 = ORIENTED_EDGE ( 'NONE', *, *, #215, .T. ) ;
#208 = DIRECTION ( 'NONE',  ( 0.0000000000000000000, -0.0000000000000000000, 1.000000000000000000 ) ) ;
#209 = ORIENTED_EDGE ( 'NONE', *, *, #16, .T. ) ;
#210 = PLANE ( 'NONE',  #235 ) ;
#211 = DIRECTION ( 'NONE',  ( -1.000000000000000000, 0.0000000000000000000, 0.0000000000000000000 ) ) ;
#212 = LINE ( 'NONE', #162, #155 ) ;
#213 = ADVANCED_FACE ( 'NONE', ( #94 ), #33, .F. ) ;
#214 = EDGE_CURVE ( 'NONE', #178, #101, #157, .T. ) ;
#215 = EDGE_CURVE ( 'NONE', #190, #139, #177, .T. ) ;
#216 = APPLICATION_CONTEXT ( 'configuration controlled 3d designs of mechanical parts and assemblies' ) ;
#217 = CALENDAR_DATE ( 2017, 10, 4 ) ;
#218 = CARTESIAN_POINT ( 'NONE',  ( -25.00000000000000000, -25.00000000000000000, 0.5000000000000000000 ) ) ;
#219 = LINE ( 'NONE', #26, #221 ) ;
#220 = PERSON_AND_ORGANIZATION ( #11, #173 ) ;
#221 = VECTOR ( 'NONE', #17, 1000.000000000000000 ) ;
#222 = DIRECTION ( 'NONE',  ( -0.0000000000000000000, 0.0000000000000000000, 1.000000000000000000 ) ) ;
#223 = EDGE_CURVE ( 'NONE', #139, #171, #38, .T. ) ;
#224 = APPROVAL ( #98, 'UNSPECIFIED' ) ;
#225 = DIRECTION ( 'NONE',  ( 1.000000000000000000, 0.0000000000000000000, 0.0000000000000000000 ) ) ;
#226 = VERTEX_POINT ( 'NONE', #158 ) ;
#227 = APPROVAL_ROLE ( '' ) ;
#228 = AXIS2_PLACEMENT_3D ( 'NONE', #131, #176, #208 ) ;
#229 = ADVANCED_FACE ( 'NONE', ( #149 ), #188, .F. ) ;
#230 = APPLICATION_PROTOCOL_DEFINITION ( 'international standard', 'config_control_design', 1994, #216 ) ;
#231 = DIRECTION ( 'NONE',  ( 1.000000000000000000, 0.0000000000000000000, 0.0000000000000000000 ) ) ;
#232 = SHAPE_DEFINITION_REPRESENTATION ( #151, #85 ) ;
#233 = CALENDAR_DATE ( 2017, 10, 4 ) ;
#234 = CC_DESIGN_SECURITY_CLASSIFICATION ( #52, ( #168 ) ) ;
#235 = AXIS2_PLACEMENT_3D ( 'NONE', #82, #222, #133 ) ;
#236 = ORIENTED_EDGE ( 'NONE', *, *, #27, .T. ) ;
#237 = DIRECTION ( 'NONE',  ( -0.0000000000000000000, -0.0000000000000000000, -1.000000000000000000 ) ) ;
ENDSEC;
END-ISO-10303-21;
