ISO-10303-21;
HEADER;
FILE_DESCRIPTION (( 'STEP AP203' ),
    '1' );
FILE_NAME ('Web Model 22036_22039.step',
    '2022-06-08T15:09:48',
    ( '' ),
    ( '' ),
    'SwSTEP 2.0',
    'SolidWorks 2021',
    '' );
FILE_SCHEMA (( 'CONFIG_CONTROL_DESIGN' ));
ENDSEC;

DATA;
#1 = PRODUCT_DEFINITION ( 'UNKNOWN', '', #95, #63 ) ;
#2 = EDGE_LOOP ( 'NONE', ( #71, #113 ) ) ;
#3 = PRODUCT ( 'Web Model 22036_22039', 'Web Model 22036_22039', '', ( #156 ) ) ;
#4 = ORIENTED_EDGE ( 'NONE', *, *, #15, .F. ) ;
#5 = FACE_OUTER_BOUND ( 'NONE', #2, .T. ) ;
#6 = DIRECTION ( 'NONE',  ( -1.000000000000000000, 0.000000000000000000, 0.000000000000000000 ) ) ;
#7 = AXIS2_PLACEMENT_3D ( 'NONE', #155, #133, #145 ) ;
#8 = PLANE ( 'NONE',  #123 ) ;
#9 = APPROVAL_STATUS ( 'not_yet_approved' ) ;
#10 = DIRECTION ( 'NONE',  ( 1.000000000000000000, 0.000000000000000000, 0.000000000000000000 ) ) ;
#11 = CALENDAR_DATE ( 2022, 8, 6 ) ;
#12 = CALENDAR_DATE ( 2022, 8, 6 ) ;
#13 = DIRECTION ( 'NONE',  ( 0.000000000000000000, 0.000000000000000000, 1.000000000000000000 ) ) ;
#14 = LOCAL_TIME ( 11, 9, 48.00000000000000000, #36 ) ;
#15 = EDGE_CURVE ( 'NONE', #85, #84, #59, .T. ) ;
#16 = CARTESIAN_POINT ( 'NONE',  ( 0.000000000000000000, 0.000000000000000000, 0.2000000000000000111 ) ) ;
#17 = AXIS2_PLACEMENT_3D ( 'NONE', #47, #13, #37 ) ;
#18 = CARTESIAN_POINT ( 'NONE',  ( 0.000000000000000000, 0.000000000000000000, 0.000000000000000000 ) ) ;
#19 = SECURITY_CLASSIFICATION ( '', '', #106 ) ;
#20 = FACE_OUTER_BOUND ( 'NONE', #68, .T. ) ;
#21 = CIRCLE ( 'NONE', #39, 10.00000000000000000 ) ;
#22 = APPROVAL_DATE_TIME ( #144, #161 ) ;
#23 = CARTESIAN_POINT ( 'NONE',  ( 0.000000000000000000, 0.000000000000000000, 0.2000000000000000111 ) ) ;
#24 =( LENGTH_UNIT ( ) NAMED_UNIT ( * ) SI_UNIT ( .MILLI., .METRE. ) );
#25 = CALENDAR_DATE ( 2022, 8, 6 ) ;
#26 = PERSON_AND_ORGANIZATION ( #54, #141 ) ;
#27 = AXIS2_PLACEMENT_3D ( 'NONE', #143, #75, #77 ) ;
#28 = LOCAL_TIME ( 11, 9, 48.00000000000000000, #118 ) ;
#29 = VECTOR ( 'NONE', #157, 1000.000000000000000 ) ;
#30 = ADVANCED_FACE ( 'NONE', ( #5 ), #138, .T. ) ;
#31 = ORIENTED_EDGE ( 'NONE', *, *, #53, .F. ) ;
#32 = DIRECTION ( 'NONE',  ( 0.000000000000000000, 0.000000000000000000, 1.000000000000000000 ) ) ;
#33 = APPROVAL_ROLE ( '' ) ;
#34 = FACE_OUTER_BOUND ( 'NONE', #70, .T. ) ;
#35 = CALENDAR_DATE ( 2022, 8, 6 ) ;
#36 = COORDINATED_UNIVERSAL_TIME_OFFSET ( 5, 0, .BEHIND. ) ;
#37 = DIRECTION ( 'NONE',  ( 1.000000000000000000, 0.000000000000000000, 0.000000000000000000 ) ) ;
#38 = DATE_AND_TIME ( #11, #152 ) ;
#39 = AXIS2_PLACEMENT_3D ( 'NONE', #23, #170, #61 ) ;
#40 = CC_DESIGN_PERSON_AND_ORGANIZATION_ASSIGNMENT ( #62, #174, ( #95 ) ) ;
#41 = SHAPE_DEFINITION_REPRESENTATION ( #121, #135 ) ;
#42 = APPROVAL_PERSON_ORGANIZATION ( #168, #161, #33 ) ;
#43 = ADVANCED_FACE ( 'NONE', ( #126 ), #48, .T. ) ;
#44 = CIRCLE ( 'NONE', #102, 10.00000000000000000 ) ;
#45 = EDGE_CURVE ( 'NONE', #55, #85, #167, .T. ) ;
#46 = DIRECTION ( 'NONE',  ( -0.000000000000000000, -0.000000000000000000, -1.000000000000000000 ) ) ;
#47 = CARTESIAN_POINT ( 'NONE',  ( 0.000000000000000000, 0.000000000000000000, 0.000000000000000000 ) ) ;
#48 = CYLINDRICAL_SURFACE ( 'NONE', #153, 10.00000000000000000 ) ;
#49 = COORDINATED_UNIVERSAL_TIME_OFFSET ( 5, 0, .BEHIND. ) ;
#50 = PERSON_AND_ORGANIZATION_ROLE ( 'classification_officer' ) ;
#51 = CC_DESIGN_APPROVAL ( #58, ( #19 ) ) ;
#52 = AXIS2_PLACEMENT_3D ( 'NONE', #16, #101, #69 ) ;
#53 = EDGE_CURVE ( 'NONE', #139, #55, #21, .T. ) ;
#54 = PERSON ( 'UNSPECIFIED', 'UNSPECIFIED', 'UNSPECIFIED', ('UNSPECIFIED'), ('UNSPECIFIED'), ('UNSPECIFIED') ) ;
#55 = VERTEX_POINT ( 'NONE', #114 ) ;
#56 = APPROVAL ( #149, 'UNSPECIFIED' ) ;
#57 = CARTESIAN_POINT ( 'NONE',  ( 0.000000000000000000, 0.000000000000000000, 0.000000000000000000 ) ) ;
#58 = APPROVAL ( #78, 'UNSPECIFIED' ) ;
#59 = CIRCLE ( 'NONE', #175, 10.00000000000000000 ) ;
#60 = CARTESIAN_POINT ( 'NONE',  ( 10.00000000000000000, 1.224646799147353256E-15, 0.2000000000000000111 ) ) ;
#61 = DIRECTION ( 'NONE',  ( 1.000000000000000000, 0.000000000000000000, 0.000000000000000000 ) ) ;
#62 = PERSON_AND_ORGANIZATION ( #54, #141 ) ;
#63 = DESIGN_CONTEXT ( 'detailed design', #127, 'design' ) ;
#64 = DIRECTION ( 'NONE',  ( -0.000000000000000000, -0.000000000000000000, -1.000000000000000000 ) ) ;
#65 = APPROVAL_ROLE ( '' ) ;
#66 = PERSON_AND_ORGANIZATION_ROLE ( 'creator' ) ;
#67 = CC_DESIGN_PERSON_AND_ORGANIZATION_ASSIGNMENT ( #26, #50, ( #19 ) ) ;
#68 = EDGE_LOOP ( 'NONE', ( #100, #4 ) ) ;
#69 = DIRECTION ( 'NONE',  ( 1.000000000000000000, 0.000000000000000000, -0.000000000000000000 ) ) ;
#70 = EDGE_LOOP ( 'NONE', ( #159, #140, #164, #136 ) ) ;
#71 = ORIENTED_EDGE ( 'NONE', *, *, #53, .T. ) ;
#72 = CARTESIAN_POINT ( 'NONE',  ( -10.00000000000000000, 0.000000000000000000, 0.000000000000000000 ) ) ;
#73 = CC_DESIGN_SECURITY_CLASSIFICATION ( #19, ( #95 ) ) ;
#74 = APPROVAL_PERSON_ORGANIZATION ( #147, #56, #162 ) ;
#75 = DIRECTION ( 'NONE',  ( -0.000000000000000000, -0.000000000000000000, -1.000000000000000000 ) ) ;
#76 = DATE_AND_TIME ( #110, #14 ) ;
#77 = DIRECTION ( 'NONE',  ( -1.000000000000000000, 0.000000000000000000, 0.000000000000000000 ) ) ;
#78 = APPROVAL_STATUS ( 'not_yet_approved' ) ;
#79 = ADVANCED_FACE ( 'NONE', ( #20 ), #8, .F. ) ;
#80 = DATE_TIME_ROLE ( 'classification_date' ) ;
#81 = PERSON_AND_ORGANIZATION ( #54, #141 ) ;
#82 = LOCAL_TIME ( 11, 9, 48.00000000000000000, #49 ) ;
#83 = VECTOR ( 'NONE', #64, 1000.000000000000000 ) ;
#84 = VERTEX_POINT ( 'NONE', #72 ) ;
#85 = VERTEX_POINT ( 'NONE', #89 ) ;
#86 = CYLINDRICAL_SURFACE ( 'NONE', #27, 10.00000000000000000 ) ;
#87 = APPLICATION_PROTOCOL_DEFINITION ( 'international standard', 'config_control_design', 1994, #127 ) ;
#88 = LOCAL_TIME ( 11, 9, 48.00000000000000000, #158 ) ;
#89 = CARTESIAN_POINT ( 'NONE',  ( 10.00000000000000000, 1.224646799147353256E-15, 0.000000000000000000 ) ) ;
#90 = PERSON_AND_ORGANIZATION ( #54, #141 ) ;
#91 = PERSON_AND_ORGANIZATION ( #54, #141 ) ;
#92 = COORDINATED_UNIVERSAL_TIME_OFFSET ( 5, 0, .BEHIND. ) ;
#93 =( GEOMETRIC_REPRESENTATION_CONTEXT ( 3 ) GLOBAL_UNCERTAINTY_ASSIGNED_CONTEXT ( ( #132 ) ) GLOBAL_UNIT_ASSIGNED_CONTEXT ( ( #24, #115, #119 ) ) REPRESENTATION_CONTEXT ( 'NONE', 'WORKASPACE' ) );
#94 = EDGE_CURVE ( 'NONE', #84, #85, #99, .T. ) ;
#95 = PRODUCT_DEFINITION_FORMATION_WITH_SPECIFIED_SOURCE ( 'ANY', '', #3, .NOT_KNOWN. ) ;
#96 = CC_DESIGN_DATE_AND_TIME_ASSIGNMENT ( #38, #160, ( #1 ) ) ;
#97 = CC_DESIGN_APPROVAL ( #56, ( #95 ) ) ;
#98 = DIRECTION ( 'NONE',  ( 0.000000000000000000, 0.000000000000000000, 1.000000000000000000 ) ) ;
#99 = CIRCLE ( 'NONE', #7, 10.00000000000000000 ) ;
#100 = ORIENTED_EDGE ( 'NONE', *, *, #94, .F. ) ;
#101 = DIRECTION ( 'NONE',  ( 0.000000000000000000, 0.000000000000000000, 1.000000000000000000 ) ) ;
#102 = AXIS2_PLACEMENT_3D ( 'NONE', #103, #32, #10 ) ;
#103 = CARTESIAN_POINT ( 'NONE',  ( 0.000000000000000000, 0.000000000000000000, 0.2000000000000000111 ) ) ;
#104 = CARTESIAN_POINT ( 'NONE',  ( 0.000000000000000000, 0.000000000000000000, 0.2000000000000000111 ) ) ;
#105 = CC_DESIGN_PERSON_AND_ORGANIZATION_ASSIGNMENT ( #109, #172, ( #3 ) ) ;
#106 = SECURITY_CLASSIFICATION_LEVEL ( 'unclassified' ) ;
#107 = APPROVAL_PERSON_ORGANIZATION ( #90, #58, #65 ) ;
#108 = CC_DESIGN_APPROVAL ( #161, ( #1 ) ) ;
#109 = PERSON_AND_ORGANIZATION ( #54, #141 ) ;
#110 = CALENDAR_DATE ( 2022, 8, 6 ) ;
#111 = APPLICATION_PROTOCOL_DEFINITION ( 'international standard', 'config_control_design', 1994, #116 ) ;
#112 = EDGE_CURVE ( 'NONE', #55, #139, #44, .T. ) ;
#113 = ORIENTED_EDGE ( 'NONE', *, *, #112, .T. ) ;
#114 = CARTESIAN_POINT ( 'NONE',  ( 10.00000000000000000, 1.224646799147353256E-15, 0.2000000000000000111 ) ) ;
#115 =( NAMED_UNIT ( * ) PLANE_ANGLE_UNIT ( ) SI_UNIT ( $, .RADIAN. ) );
#116 = APPLICATION_CONTEXT ( 'configuration controlled 3d designs of mechanical parts and assemblies' ) ;
#117 = DIRECTION ( 'NONE',  ( 0.000000000000000000, 0.000000000000000000, 1.000000000000000000 ) ) ;
#118 = COORDINATED_UNIVERSAL_TIME_OFFSET ( 5, 0, .BEHIND. ) ;
#119 =( NAMED_UNIT ( * ) SI_UNIT ( $, .STERADIAN. ) SOLID_ANGLE_UNIT ( ) );
#120 = PERSON_AND_ORGANIZATION_ROLE ( 'creator' ) ;
#121 = PRODUCT_DEFINITION_SHAPE ( 'NONE', 'NONE',  #1 ) ;
#122 = EDGE_CURVE ( 'NONE', #139, #84, #166, .T. ) ;
#123 = AXIS2_PLACEMENT_3D ( 'NONE', #18, #117, #142 ) ;
#124 = ADVANCED_FACE ( 'NONE', ( #34 ), #86, .T. ) ;
#125 = EDGE_LOOP ( 'NONE', ( #163, #31, #165, #151 ) ) ;
#126 = FACE_OUTER_BOUND ( 'NONE', #125, .T. ) ;
#127 = APPLICATION_CONTEXT ( 'configuration controlled 3d designs of mechanical parts and assemblies' ) ;
#128 = DIRECTION ( 'NONE',  ( 1.000000000000000000, 0.000000000000000000, 0.000000000000000000 ) ) ;
#129 = CARTESIAN_POINT ( 'NONE',  ( -10.00000000000000000, 0.000000000000000000, 0.2000000000000000111 ) ) ;
#130 = CARTESIAN_POINT ( 'NONE',  ( -10.00000000000000000, 0.000000000000000000, 0.2000000000000000111 ) ) ;
#131 = APPROVAL_DATE_TIME ( #76, #56 ) ;
#132 = UNCERTAINTY_MEASURE_WITH_UNIT (LENGTH_MEASURE( 1.000000000000000082E-05 ), #24, 'distance_accuracy_value', 'NONE');
#133 = DIRECTION ( 'NONE',  ( 0.000000000000000000, 0.000000000000000000, 1.000000000000000000 ) ) ;
#134 = DATE_AND_TIME ( #25, #28 ) ;
#135 = ADVANCED_BREP_SHAPE_REPRESENTATION ( 'Web Model 22036_22039', ( #169, #17 ), #93 ) ;
#136 = ORIENTED_EDGE ( 'NONE', *, *, #122, .F. ) ;
#137 = CLOSED_SHELL ( 'NONE', ( #124, #43, #30, #79 ) ) ;
#138 = PLANE ( 'NONE',  #52 ) ;
#139 = VERTEX_POINT ( 'NONE', #130 ) ;
#140 = ORIENTED_EDGE ( 'NONE', *, *, #45, .T. ) ;
#141 = ORGANIZATION ( 'UNSPECIFIED', 'UNSPECIFIED', '' ) ;
#142 = DIRECTION ( 'NONE',  ( 1.000000000000000000, 0.000000000000000000, -0.000000000000000000 ) ) ;
#143 = CARTESIAN_POINT ( 'NONE',  ( 0.000000000000000000, 0.000000000000000000, 0.2000000000000000111 ) ) ;
#144 = DATE_AND_TIME ( #12, #82 ) ;
#145 = DIRECTION ( 'NONE',  ( 1.000000000000000000, 0.000000000000000000, 0.000000000000000000 ) ) ;
#146 = DATE_AND_TIME ( #35, #88 ) ;
#147 = PERSON_AND_ORGANIZATION ( #54, #141 ) ;
#148 = CC_DESIGN_PERSON_AND_ORGANIZATION_ASSIGNMENT ( #81, #120, ( #1 ) ) ;
#149 = APPROVAL_STATUS ( 'not_yet_approved' ) ;
#150 = PRODUCT_RELATED_PRODUCT_CATEGORY ( 'detail', '', ( #3 ) ) ;
#151 = ORIENTED_EDGE ( 'NONE', *, *, #94, .T. ) ;
#152 = LOCAL_TIME ( 11, 9, 48.00000000000000000, #92 ) ;
#153 = AXIS2_PLACEMENT_3D ( 'NONE', #104, #46, #6 ) ;
#154 = CC_DESIGN_DATE_AND_TIME_ASSIGNMENT ( #146, #80, ( #19 ) ) ;
#155 = CARTESIAN_POINT ( 'NONE',  ( 0.000000000000000000, 0.000000000000000000, 0.000000000000000000 ) ) ;
#156 = MECHANICAL_CONTEXT ( 'NONE', #116, 'mechanical' ) ;
#157 = DIRECTION ( 'NONE',  ( -0.000000000000000000, -0.000000000000000000, -1.000000000000000000 ) ) ;
#158 = COORDINATED_UNIVERSAL_TIME_OFFSET ( 5, 0, .BEHIND. ) ;
#159 = ORIENTED_EDGE ( 'NONE', *, *, #112, .F. ) ;
#160 = DATE_TIME_ROLE ( 'creation_date' ) ;
#161 = APPROVAL ( #9, 'UNSPECIFIED' ) ;
#162 = APPROVAL_ROLE ( '' ) ;
#163 = ORIENTED_EDGE ( 'NONE', *, *, #45, .F. ) ;
#164 = ORIENTED_EDGE ( 'NONE', *, *, #15, .T. ) ;
#165 = ORIENTED_EDGE ( 'NONE', *, *, #122, .T. ) ;
#166 = LINE ( 'NONE', #129, #29 ) ;
#167 = LINE ( 'NONE', #60, #83 ) ;
#168 = PERSON_AND_ORGANIZATION ( #54, #141 ) ;
#169 = MANIFOLD_SOLID_BREP ( 'Boss-Extrude1', #137 ) ;
#170 = DIRECTION ( 'NONE',  ( 0.000000000000000000, 0.000000000000000000, 1.000000000000000000 ) ) ;
#171 = CC_DESIGN_PERSON_AND_ORGANIZATION_ASSIGNMENT ( #91, #66, ( #95 ) ) ;
#172 = PERSON_AND_ORGANIZATION_ROLE ( 'design_owner' ) ;
#173 = APPROVAL_DATE_TIME ( #134, #58 ) ;
#174 = PERSON_AND_ORGANIZATION_ROLE ( 'design_supplier' ) ;
#175 = AXIS2_PLACEMENT_3D ( 'NONE', #57, #98, #128 ) ;
ENDSEC;
END-ISO-10303-21;
