ISO-10303-21;
HEADER;
FILE_DESCRIPTION (( 'STEP AP203' ),
    '1' );
FILE_NAME ('Web Model 12661_12662.step',
    '2019-03-20T20:55:33',
    ( '' ),
    ( '' ),
    'SwSTEP 2.0',
    'SolidWorks 2018',
    '' );
FILE_SCHEMA (( 'CONFIG_CONTROL_DESIGN' ));
ENDSEC;

DATA;
#1 = EDGE_CURVE ( 'NONE', #85, #52, #4, .T. ) ;
#2 = APPROVAL ( #50, 'UNSPECIFIED' ) ;
#3 = CARTESIAN_POINT ( 'NONE',  ( 12.70000000000000462, 1.555301434917139024E-15, 3.000000000000000000 ) ) ;
#4 = CIRCLE ( 'NONE', #54, 12.70000000000000462 ) ;
#5 = DIRECTION ( 'NONE',  ( 1.000000000000000000, 0.0000000000000000000, 0.0000000000000000000 ) ) ;
#6 = DIRECTION ( 'NONE',  ( -1.000000000000000000, 0.0000000000000000000, 0.0000000000000000000 ) ) ;
#7 = LOCAL_TIME ( 16, 55, 33.00000000000000000, #26 ) ;
#8 = APPROVAL_ROLE ( '' ) ;
#9 = APPROVAL_ROLE ( '' ) ;
#10 = DIRECTION ( 'NONE',  ( 1.000000000000000000, 0.0000000000000000000, 0.0000000000000000000 ) ) ;
#11 = APPROVAL_PERSON_ORGANIZATION ( #103, #2, #79 ) ;
#12 = FACE_OUTER_BOUND ( 'NONE', #164, .T. ) ;
#13 = DIRECTION ( 'NONE',  ( 0.0000000000000000000, 0.0000000000000000000, 1.000000000000000000 ) ) ;
#14 = DATE_TIME_ROLE ( 'creation_date' ) ;
#15 = UNCERTAINTY_MEASURE_WITH_UNIT (LENGTH_MEASURE( 1.000000000000000082E-05 ), #118, 'distance_accuracy_value', 'NONE');
#16 = PERSON_AND_ORGANIZATION ( #45, #17 ) ;
#17 = ORGANIZATION ( 'UNSPECIFIED', 'UNSPECIFIED', '' ) ;
#18 = DIRECTION ( 'NONE',  ( 1.000000000000000000, 0.0000000000000000000, 0.0000000000000000000 ) ) ;
#19 = PERSON_AND_ORGANIZATION_ROLE ( 'design_owner' ) ;
#20 = CYLINDRICAL_SURFACE ( 'NONE', #142, 12.70000000000000462 ) ;
#21 = APPLICATION_CONTEXT ( 'configuration controlled 3d designs of mechanical parts and assemblies' ) ;
#22 = ORIENTED_EDGE ( 'NONE', *, *, #25, .F. ) ;
#23 = ADVANCED_FACE ( 'NONE', ( #77 ), #111, .F. ) ;
#24 = DATE_AND_TIME ( #55, #67 ) ;
#25 = EDGE_CURVE ( 'NONE', #52, #85, #106, .T. ) ;
#26 = COORDINATED_UNIVERSAL_TIME_OFFSET ( 5, 0, .BEHIND. ) ;
#27 = DIRECTION ( 'NONE',  ( 1.000000000000000000, 0.0000000000000000000, -0.0000000000000000000 ) ) ;
#28 = PLANE ( 'NONE',  #163 ) ;
#29 = CARTESIAN_POINT ( 'NONE',  ( -12.70000000000000462, 0.0000000000000000000, 3.000000000000000000 ) ) ;
#30 = SECURITY_CLASSIFICATION_LEVEL ( 'unclassified' ) ;
#31 = AXIS2_PLACEMENT_3D ( 'NONE', #71, #89, #18 ) ;
#32 = APPROVAL_STATUS ( 'not_yet_approved' ) ;
#33 = CLOSED_SHELL ( 'NONE', ( #95, #36, #145, #23 ) ) ;
#34 = CC_DESIGN_PERSON_AND_ORGANIZATION_ASSIGNMENT ( #16, #46, ( #88 ) ) ;
#35 = EDGE_CURVE ( 'NONE', #162, #125, #156, .T. ) ;
#36 = ADVANCED_FACE ( 'NONE', ( #48 ), #20, .T. ) ;
#37 = AXIS2_PLACEMENT_3D ( 'NONE', #154, #132, #10 ) ;
#38 = ORIENTED_EDGE ( 'NONE', *, *, #63, .F. ) ;
#39 = PERSON_AND_ORGANIZATION ( #45, #17 ) ;
#40 = MANIFOLD_SOLID_BREP ( '84715410-1-solid1', #33 ) ;
#41 = DIRECTION ( 'NONE',  ( -0.0000000000000000000, -0.0000000000000000000, -1.000000000000000000 ) ) ;
#42 = DIRECTION ( 'NONE',  ( 0.0000000000000000000, 0.0000000000000000000, 1.000000000000000000 ) ) ;
#43 = SECURITY_CLASSIFICATION ( '', '', #30 ) ;
#44 = CARTESIAN_POINT ( 'NONE',  ( 12.70000000000000462, 1.555301434917139024E-15, 0.0000000000000000000 ) ) ;
#45 = PERSON ( 'UNSPECIFIED', 'UNSPECIFIED', 'UNSPECIFIED', ('UNSPECIFIED'), ('UNSPECIFIED'), ('UNSPECIFIED') ) ;
#46 = PERSON_AND_ORGANIZATION_ROLE ( 'creator' ) ;
#47 = LOCAL_TIME ( 16, 55, 33.00000000000000000, #65 ) ;
#48 = FACE_OUTER_BOUND ( 'NONE', #150, .T. ) ;
#49 = FACE_OUTER_BOUND ( 'NONE', #175, .T. ) ;
#50 = APPROVAL_STATUS ( 'not_yet_approved' ) ;
#51 = AXIS2_PLACEMENT_3D ( 'NONE', #90, #41, #169 ) ;
#52 = VERTEX_POINT ( 'NONE', #3 ) ;
#53 = CC_DESIGN_SECURITY_CLASSIFICATION ( #43, ( #88 ) ) ;
#54 = AXIS2_PLACEMENT_3D ( 'NONE', #165, #100, #56 ) ;
#55 = CALENDAR_DATE ( 2019, 20, 3 ) ;
#56 = DIRECTION ( 'NONE',  ( 1.000000000000000000, 0.0000000000000000000, 0.0000000000000000000 ) ) ;
#57 = LOCAL_TIME ( 16, 55, 33.00000000000000000, #138 ) ;
#58 = ORIENTED_EDGE ( 'NONE', *, *, #171, .T. ) ;
#59 = AXIS2_PLACEMENT_3D ( 'NONE', #69, #114, #27 ) ;
#60 = ORIENTED_EDGE ( 'NONE', *, *, #35, .T. ) ;
#61 = PRODUCT ( 'Web Model 12661_12662', 'Web Model 12661_12662', '', ( #104 ) ) ;
#62 = VECTOR ( 'NONE', #168, 1000.000000000000000 ) ;
#63 = EDGE_CURVE ( 'NONE', #85, #162, #128, .T. ) ;
#64 = CC_DESIGN_APPROVAL ( #139, ( #88 ) ) ;
#65 = COORDINATED_UNIVERSAL_TIME_OFFSET ( 5, 0, .BEHIND. ) ;
#66 =( GEOMETRIC_REPRESENTATION_CONTEXT ( 3 ) GLOBAL_UNCERTAINTY_ASSIGNED_CONTEXT ( ( #15 ) ) GLOBAL_UNIT_ASSIGNED_CONTEXT ( ( #118, #94, #143 ) ) REPRESENTATION_CONTEXT ( 'NONE', 'WORKASPACE' ) );
#67 = LOCAL_TIME ( 16, 55, 33.00000000000000000, #124 ) ;
#68 = CC_DESIGN_APPROVAL ( #2, ( #126 ) ) ;
#69 = CARTESIAN_POINT ( 'NONE',  ( 0.0000000000000000000, 0.0000000000000000000, 0.0000000000000000000 ) ) ;
#70 = APPROVAL_PERSON_ORGANIZATION ( #172, #139, #8 ) ;
#71 = CARTESIAN_POINT ( 'NONE',  ( 0.0000000000000000000, 0.0000000000000000000, 0.0000000000000000000 ) ) ;
#72 = CARTESIAN_POINT ( 'NONE',  ( 0.0000000000000000000, 0.0000000000000000000, 3.000000000000000000 ) ) ;
#73 = CC_DESIGN_DATE_AND_TIME_ASSIGNMENT ( #140, #14, ( #126 ) ) ;
#74 = PERSON_AND_ORGANIZATION_ROLE ( 'creator' ) ;
#75 = DATE_AND_TIME ( #112, #7 ) ;
#76 = CC_DESIGN_DATE_AND_TIME_ASSIGNMENT ( #119, #134, ( #43 ) ) ;
#77 = FACE_OUTER_BOUND ( 'NONE', #153, .T. ) ;
#78 = ORIENTED_EDGE ( 'NONE', *, *, #116, .F. ) ;
#79 = APPROVAL_ROLE ( '' ) ;
#80 = CC_DESIGN_PERSON_AND_ORGANIZATION_ASSIGNMENT ( #127, #92, ( #43 ) ) ;
#81 = LINE ( 'NONE', #102, #161 ) ;
#82 = PRODUCT_DEFINITION_SHAPE ( 'NONE', 'NONE',  #126 ) ;
#83 = ADVANCED_BREP_SHAPE_REPRESENTATION ( 'Web Model 12661_12662', ( #40, #158 ), #66 ) ;
#84 = APPROVAL ( #173, 'UNSPECIFIED' ) ;
#85 = VERTEX_POINT ( 'NONE', #29 ) ;
#86 = CARTESIAN_POINT ( 'NONE',  ( 0.0000000000000000000, 0.0000000000000000000, 3.000000000000000000 ) ) ;
#87 = DATE_AND_TIME ( #155, #47 ) ;
#88 = PRODUCT_DEFINITION_FORMATION_WITH_SPECIFIED_SOURCE ( 'ANY', '', #61, .NOT_KNOWN. ) ;
#89 = DIRECTION ( 'NONE',  ( 0.0000000000000000000, 0.0000000000000000000, 1.000000000000000000 ) ) ;
#90 = CARTESIAN_POINT ( 'NONE',  ( 0.0000000000000000000, 0.0000000000000000000, 3.000000000000000000 ) ) ;
#91 = ORIENTED_EDGE ( 'NONE', *, *, #171, .F. ) ;
#92 = PERSON_AND_ORGANIZATION_ROLE ( 'classification_officer' ) ;
#93 = AXIS2_PLACEMENT_3D ( 'NONE', #72, #42, #5 ) ;
#94 =( NAMED_UNIT ( * ) PLANE_ANGLE_UNIT ( ) SI_UNIT ( $, .RADIAN. ) );
#95 = ADVANCED_FACE ( 'NONE', ( #49 ), #133, .T. ) ;
#96 = LOCAL_TIME ( 16, 55, 33.00000000000000000, #149 ) ;
#97 = PRODUCT_RELATED_PRODUCT_CATEGORY ( 'detail', '', ( #61 ) ) ;
#98 = APPROVAL_PERSON_ORGANIZATION ( #39, #84, #9 ) ;
#99 = CARTESIAN_POINT ( 'NONE',  ( -12.70000000000000462, 0.0000000000000000000, 0.0000000000000000000 ) ) ;
#100 = DIRECTION ( 'NONE',  ( 0.0000000000000000000, 0.0000000000000000000, 1.000000000000000000 ) ) ;
#101 = ORIENTED_EDGE ( 'NONE', *, *, #25, .T. ) ;
#102 = CARTESIAN_POINT ( 'NONE',  ( 12.70000000000000462, 1.555301434917139024E-15, 3.000000000000000000 ) ) ;
#103 = PERSON_AND_ORGANIZATION ( #45, #17 ) ;
#104 = MECHANICAL_CONTEXT ( 'NONE', #21, 'mechanical' ) ;
#105 = APPROVAL_DATE_TIME ( #75, #84 ) ;
#106 = CIRCLE ( 'NONE', #93, 12.70000000000000462 ) ;
#107 = CC_DESIGN_PERSON_AND_ORGANIZATION_ASSIGNMENT ( #160, #19, ( #61 ) ) ;
#108 = DIRECTION ( 'NONE',  ( 1.000000000000000000, 0.0000000000000000000, 0.0000000000000000000 ) ) ;
#109 = SHAPE_DEFINITION_REPRESENTATION ( #82, #83 ) ;
#110 = PERSON_AND_ORGANIZATION ( #45, #17 ) ;
#111 = PLANE ( 'NONE',  #59 ) ;
#112 = CALENDAR_DATE ( 2019, 20, 3 ) ;
#113 = CARTESIAN_POINT ( 'NONE',  ( -12.70000000000000462, 0.0000000000000000000, 3.000000000000000000 ) ) ;
#114 = DIRECTION ( 'NONE',  ( 0.0000000000000000000, 0.0000000000000000000, 1.000000000000000000 ) ) ;
#115 = DIRECTION ( 'NONE',  ( -0.0000000000000000000, -0.0000000000000000000, -1.000000000000000000 ) ) ;
#116 = EDGE_CURVE ( 'NONE', #52, #125, #81, .T. ) ;
#117 = APPLICATION_PROTOCOL_DEFINITION ( 'international standard', 'config_control_design', 1994, #21 ) ;
#118 =( LENGTH_UNIT ( ) NAMED_UNIT ( * ) SI_UNIT ( .MILLI., .METRE. ) );
#119 = DATE_AND_TIME ( #137, #96 ) ;
#120 = ORIENTED_EDGE ( 'NONE', *, *, #63, .T. ) ;
#121 = ORIENTED_EDGE ( 'NONE', *, *, #35, .F. ) ;
#122 = APPLICATION_PROTOCOL_DEFINITION ( 'international standard', 'config_control_design', 1994, #136 ) ;
#123 = CARTESIAN_POINT ( 'NONE',  ( 0.0000000000000000000, 0.0000000000000000000, 0.0000000000000000000 ) ) ;
#124 = COORDINATED_UNIVERSAL_TIME_OFFSET ( 5, 0, .BEHIND. ) ;
#125 = VERTEX_POINT ( 'NONE', #44 ) ;
#126 = PRODUCT_DEFINITION ( 'UNKNOWN', '', #88, #157 ) ;
#127 = PERSON_AND_ORGANIZATION ( #45, #17 ) ;
#128 = LINE ( 'NONE', #113, #62 ) ;
#129 = DIRECTION ( 'NONE',  ( 0.0000000000000000000, 0.0000000000000000000, 1.000000000000000000 ) ) ;
#130 = CIRCLE ( 'NONE', #37, 12.70000000000000462 ) ;
#131 = CC_DESIGN_APPROVAL ( #84, ( #43 ) ) ;
#132 = DIRECTION ( 'NONE',  ( 0.0000000000000000000, 0.0000000000000000000, 1.000000000000000000 ) ) ;
#133 = CYLINDRICAL_SURFACE ( 'NONE', #51, 12.70000000000000462 ) ;
#134 = DATE_TIME_ROLE ( 'classification_date' ) ;
#135 = APPROVAL_DATE_TIME ( #87, #139 ) ;
#136 = APPLICATION_CONTEXT ( 'configuration controlled 3d designs of mechanical parts and assemblies' ) ;
#137 = CALENDAR_DATE ( 2019, 20, 3 ) ;
#138 = COORDINATED_UNIVERSAL_TIME_OFFSET ( 5, 0, .BEHIND. ) ;
#139 = APPROVAL ( #32, 'UNSPECIFIED' ) ;
#140 = DATE_AND_TIME ( #166, #57 ) ;
#141 = DIRECTION ( 'NONE',  ( -0.0000000000000000000, -0.0000000000000000000, -1.000000000000000000 ) ) ;
#142 = AXIS2_PLACEMENT_3D ( 'NONE', #152, #141, #6 ) ;
#143 =( NAMED_UNIT ( * ) SI_UNIT ( $, .STERADIAN. ) SOLID_ANGLE_UNIT ( ) );
#144 = ORIENTED_EDGE ( 'NONE', *, *, #116, .T. ) ;
#145 = ADVANCED_FACE ( 'NONE', ( #12 ), #28, .T. ) ;
#146 = PERSON_AND_ORGANIZATION ( #45, #17 ) ;
#147 = ORIENTED_EDGE ( 'NONE', *, *, #1, .T. ) ;
#148 = CC_DESIGN_PERSON_AND_ORGANIZATION_ASSIGNMENT ( #110, #74, ( #126 ) ) ;
#149 = COORDINATED_UNIVERSAL_TIME_OFFSET ( 5, 0, .BEHIND. ) ;
#150 = EDGE_LOOP ( 'NONE', ( #78, #167, #120, #60 ) ) ;
#151 = DIRECTION ( 'NONE',  ( 1.000000000000000000, 0.0000000000000000000, -0.0000000000000000000 ) ) ;
#152 = CARTESIAN_POINT ( 'NONE',  ( 0.0000000000000000000, 0.0000000000000000000, 3.000000000000000000 ) ) ;
#153 = EDGE_LOOP ( 'NONE', ( #121, #91 ) ) ;
#154 = CARTESIAN_POINT ( 'NONE',  ( 0.0000000000000000000, 0.0000000000000000000, 0.0000000000000000000 ) ) ;
#155 = CALENDAR_DATE ( 2019, 20, 3 ) ;
#156 = CIRCLE ( 'NONE', #31, 12.70000000000000462 ) ;
#157 = DESIGN_CONTEXT ( 'detailed design', #136, 'design' ) ;
#158 = AXIS2_PLACEMENT_3D ( 'NONE', #123, #13, #108 ) ;
#159 = CC_DESIGN_PERSON_AND_ORGANIZATION_ASSIGNMENT ( #146, #170, ( #88 ) ) ;
#160 = PERSON_AND_ORGANIZATION ( #45, #17 ) ;
#161 = VECTOR ( 'NONE', #115, 1000.000000000000000 ) ;
#162 = VERTEX_POINT ( 'NONE', #99 ) ;
#163 = AXIS2_PLACEMENT_3D ( 'NONE', #86, #129, #151 ) ;
#164 = EDGE_LOOP ( 'NONE', ( #147, #101 ) ) ;
#165 = CARTESIAN_POINT ( 'NONE',  ( 0.0000000000000000000, 0.0000000000000000000, 3.000000000000000000 ) ) ;
#166 = CALENDAR_DATE ( 2019, 20, 3 ) ;
#167 = ORIENTED_EDGE ( 'NONE', *, *, #1, .F. ) ;
#168 = DIRECTION ( 'NONE',  ( -0.0000000000000000000, -0.0000000000000000000, -1.000000000000000000 ) ) ;
#169 = DIRECTION ( 'NONE',  ( -1.000000000000000000, 0.0000000000000000000, 0.0000000000000000000 ) ) ;
#170 = PERSON_AND_ORGANIZATION_ROLE ( 'design_supplier' ) ;
#171 = EDGE_CURVE ( 'NONE', #125, #162, #130, .T. ) ;
#172 = PERSON_AND_ORGANIZATION ( #45, #17 ) ;
#173 = APPROVAL_STATUS ( 'not_yet_approved' ) ;
#174 = APPROVAL_DATE_TIME ( #24, #2 ) ;
#175 = EDGE_LOOP ( 'NONE', ( #22, #144, #58, #38 ) ) ;
ENDSEC;
END-ISO-10303-21;
