ISO-10303-21;
HEADER;
FILE_DESCRIPTION (( 'STEP AP203' ),
    '1' );
FILE_NAME ('Web Model 64397MX_43771.step',
    '2017-10-30T13:01:48',
    ( '' ),
    ( '' ),
    'SwSTEP 2.0',
    'SolidWorks 2016',
    '' );
FILE_SCHEMA (( 'CONFIG_CONTROL_DESIGN' ));
ENDSEC;

DATA;
#1 = CARTESIAN_POINT ( 'NONE',  ( 6.349999999999998800, -6.349999999999998800, 3.000000000000000000 ) ) ;
#2 = ORIENTED_EDGE ( 'NONE', *, *, #13, .F. ) ;
#3 = EDGE_LOOP ( 'NONE', ( #212, #56, #204, #91 ) ) ;
#4 = DIRECTION ( 'NONE',  ( 0.0000000000000000000, 0.0000000000000000000, 1.000000000000000000 ) ) ;
#5 = EDGE_CURVE ( 'NONE', #29, #101, #171, .T. ) ;
#6 = LINE ( 'NONE', #67, #108 ) ;
#7 = DATE_AND_TIME ( #10, #218 ) ;
#8 = DIRECTION ( 'NONE',  ( -0.0000000000000000000, -0.0000000000000000000, -1.000000000000000000 ) ) ;
#9 = LINE ( 'NONE', #205, #68 ) ;
#10 = CALENDAR_DATE ( 2017, 30, 10 ) ;
#11 = FACE_OUTER_BOUND ( 'NONE', #120, .T. ) ;
#12 = APPROVAL_DATE_TIME ( #145, #45 ) ;
#13 = EDGE_CURVE ( 'NONE', #46, #29, #9, .T. ) ;
#14 = MECHANICAL_CONTEXT ( 'NONE', #53, 'mechanical' ) ;
#15 = ORIENTED_EDGE ( 'NONE', *, *, #194, .F. ) ;
#16 = CARTESIAN_POINT ( 'NONE',  ( 6.349999999999998800, -6.349999999999998800, 3.000000000000000000 ) ) ;
#17 = CC_DESIGN_PERSON_AND_ORGANIZATION_ASSIGNMENT ( #164, #88, ( #231 ) ) ;
#18 = EDGE_LOOP ( 'NONE', ( #61, #150, #114, #221 ) ) ;
#19 = CARTESIAN_POINT ( 'NONE',  ( 6.349999999999998800, -6.349999999999998800, 3.000000000000000000 ) ) ;
#20 = DATE_AND_TIME ( #69, #112 ) ;
#21 = APPROVAL_PERSON_ORGANIZATION ( #165, #54, #136 ) ;
#22 = DIRECTION ( 'NONE',  ( 0.0000000000000000000, -0.0000000000000000000, 1.000000000000000000 ) ) ;
#23 = CARTESIAN_POINT ( 'NONE',  ( 6.349999999999998800, -6.349999999999998800, 3.000000000000000000 ) ) ;
#24 = DIRECTION ( 'NONE',  ( -1.000000000000000000, -1.365923996832131600E-016, 0.0000000000000000000 ) ) ;
#25 = AXIS2_PLACEMENT_3D ( 'NONE', #37, #208, #87 ) ;
#26 = APPROVAL_DATE_TIME ( #118, #234 ) ;
#27 = CARTESIAN_POINT ( 'NONE',  ( -6.350000000000000500, -6.350000000000000500, 3.000000000000000000 ) ) ;
#28 = CC_DESIGN_DATE_AND_TIME_ASSIGNMENT ( #7, #70, ( #231 ) ) ;
#29 = VERTEX_POINT ( 'NONE', #60 ) ;
#30 = PLANE ( 'NONE',  #80 ) ;
#31 = COORDINATED_UNIVERSAL_TIME_OFFSET ( 5, 0, .BEHIND. ) ;
#32 = APPLICATION_PROTOCOL_DEFINITION ( 'international standard', 'config_control_design', 1994, #53 ) ;
#33 = CC_DESIGN_DATE_AND_TIME_ASSIGNMENT ( #20, #137, ( #166 ) ) ;
#34 = PERSON_AND_ORGANIZATION_ROLE ( 'classification_officer' ) ;
#35 = ORIENTED_EDGE ( 'NONE', *, *, #194, .T. ) ;
#36 = DIRECTION ( 'NONE',  ( -0.0000000000000000000, -0.0000000000000000000, -1.000000000000000000 ) ) ;
#37 = CARTESIAN_POINT ( 'NONE',  ( 6.349999999999998800, 6.350000000000000500, 3.000000000000000000 ) ) ;
#38 = CARTESIAN_POINT ( 'NONE',  ( 6.349999999999998800, -6.349999999999998800, 3.000000000000000000 ) ) ;
#39 = CC_DESIGN_APPROVAL ( #45, ( #166 ) ) ;
#40 = DIRECTION ( 'NONE',  ( -0.0000000000000000000, -0.0000000000000000000, -1.000000000000000000 ) ) ;
#41 = EDGE_LOOP ( 'NONE', ( #100, #215, #206, #2 ) ) ;
#42 = PLANE ( 'NONE',  #125 ) ;
#43 = ADVANCED_FACE ( 'NONE', ( #158 ), #225, .F. ) ;
#44 = ADVANCED_FACE ( 'NONE', ( #63 ), #42, .T. ) ;
#45 = APPROVAL ( #49, 'UNSPECIFIED' ) ;
#46 = VERTEX_POINT ( 'NONE', #75 ) ;
#47 = ORIENTED_EDGE ( 'NONE', *, *, #172, .T. ) ;
#48 = DIRECTION ( 'NONE',  ( -1.000000000000000000, -1.365923996832131600E-016, 0.0000000000000000000 ) ) ;
#49 = APPROVAL_STATUS ( 'not_yet_approved' ) ;
#50 = CARTESIAN_POINT ( 'NONE',  ( -6.350000000000000500, -6.350000000000000500, 3.000000000000000000 ) ) ;
#51 = VERTEX_POINT ( 'NONE', #89 ) ;
#52 = APPROVAL_DATE_TIME ( #99, #54 ) ;
#53 = APPLICATION_CONTEXT ( 'configuration controlled 3d designs of mechanical parts and assemblies' ) ;
#54 = APPROVAL ( #202, 'UNSPECIFIED' ) ;
#55 = CARTESIAN_POINT ( 'NONE',  ( -6.350000000000000500, -6.350000000000000500, 3.000000000000000000 ) ) ;
#56 = ORIENTED_EDGE ( 'NONE', *, *, #209, .F. ) ;
#57 = LINE ( 'NONE', #173, #126 ) ;
#58 = DIRECTION ( 'NONE',  ( 0.0000000000000000000, -0.0000000000000000000, 1.000000000000000000 ) ) ;
#59 = DIRECTION ( 'NONE',  ( 1.000000000000000000, 1.365923996832131600E-016, -0.0000000000000000000 ) ) ;
#60 = CARTESIAN_POINT ( 'NONE',  ( 6.349999999999998800, -6.349999999999998800, -3.000000000000000000 ) ) ;
#61 = ORIENTED_EDGE ( 'NONE', *, *, #76, .T. ) ;
#62 = DIRECTION ( 'NONE',  ( 0.0000000000000000000, 0.0000000000000000000, 1.000000000000000000 ) ) ;
#63 = FACE_OUTER_BOUND ( 'NONE', #134, .T. ) ;
#64 = PERSON_AND_ORGANIZATION ( #196, #174 ) ;
#65 = CC_DESIGN_SECURITY_CLASSIFICATION ( #166, ( #73 ) ) ;
#66 = ORIENTED_EDGE ( 'NONE', *, *, #5, .T. ) ;
#67 = CARTESIAN_POINT ( 'NONE',  ( 6.349999999999998800, -6.349999999999998800, 3.000000000000000000 ) ) ;
#68 = VECTOR ( 'NONE', #59, 1000.000000000000000 ) ;
#69 = CALENDAR_DATE ( 2017, 30, 10 ) ;
#70 = DATE_TIME_ROLE ( 'creation_date' ) ;
#71 = DIRECTION ( 'NONE',  ( 0.0000000000000000000, 1.000000000000000000, 0.0000000000000000000 ) ) ;
#72 = VERTEX_POINT ( 'NONE', #183 ) ;
#73 = PRODUCT_DEFINITION_FORMATION_WITH_SPECIFIED_SOURCE ( 'ANY', '', #82, .NOT_KNOWN. ) ;
#74 = LINE ( 'NONE', #38, #187 ) ;
#75 = CARTESIAN_POINT ( 'NONE',  ( -6.350000000000000500, -6.350000000000000500, -3.000000000000000000 ) ) ;
#76 = EDGE_CURVE ( 'NONE', #101, #85, #232, .T. ) ;
#77 = LINE ( 'NONE', #1, #127 ) ;
#78 = EDGE_LOOP ( 'NONE', ( #66, #191, #15, #140 ) ) ;
#79 = DIRECTION ( 'NONE',  ( 1.000000000000000000, 0.0000000000000000000, 0.0000000000000000000 ) ) ;
#80 = AXIS2_PLACEMENT_3D ( 'NONE', #16, #133, #155 ) ;
#81 = ADVANCED_FACE ( 'NONE', ( #11 ), #169, .F. ) ;
#82 = PRODUCT ( 'Web Model 64397MX_43771', 'Web Model 64397MX_43771', '', ( #14 ) ) ;
#83 = LINE ( 'NONE', #219, #167 ) ;
#84 = DIRECTION ( 'NONE',  ( 1.000000000000000000, 1.365923996832131600E-016, -0.0000000000000000000 ) ) ;
#85 = VERTEX_POINT ( 'NONE', #95 ) ;
#86 = CC_DESIGN_PERSON_AND_ORGANIZATION_ASSIGNMENT ( #64, #106, ( #73 ) ) ;
#87 = DIRECTION ( 'NONE',  ( 1.000000000000000000, 1.365923996832131600E-016, 0.0000000000000000000 ) ) ;
#88 = PERSON_AND_ORGANIZATION_ROLE ( 'creator' ) ;
#89 = CARTESIAN_POINT ( 'NONE',  ( -6.350000000000000500, 6.349999999999998800, 3.000000000000000000 ) ) ;
#90 = FACE_OUTER_BOUND ( 'NONE', #18, .T. ) ;
#91 = ORIENTED_EDGE ( 'NONE', *, *, #184, .T. ) ;
#92 = DIRECTION ( 'NONE',  ( 0.0000000000000000000, 1.000000000000000000, 0.0000000000000000000 ) ) ;
#93 = VECTOR ( 'NONE', #8, 1000.000000000000000 ) ;
#94 = EDGE_CURVE ( 'NONE', #72, #101, #178, .T. ) ;
#95 = CARTESIAN_POINT ( 'NONE',  ( -6.350000000000000500, 6.349999999999998800, -3.000000000000000000 ) ) ;
#96 = COORDINATED_UNIVERSAL_TIME_OFFSET ( 5, 0, .BEHIND. ) ;
#97 = FACE_OUTER_BOUND ( 'NONE', #3, .T. ) ;
#98 = UNCERTAINTY_MEASURE_WITH_UNIT (LENGTH_MEASURE( 1.000000000000000100E-005 ), #138, 'distance_accuracy_value', 'NONE');
#99 = DATE_AND_TIME ( #201, #214 ) ;
#100 = ORIENTED_EDGE ( 'NONE', *, *, #121, .F. ) ;
#101 = VERTEX_POINT ( 'NONE', #197 ) ;
#102 = ORIENTED_EDGE ( 'NONE', *, *, #132, .T. ) ;
#103 = APPROVAL_PERSON_ORGANIZATION ( #131, #45, #119 ) ;
#104 = PRODUCT_RELATED_PRODUCT_CATEGORY ( 'detail', '', ( #82 ) ) ;
#105 = CARTESIAN_POINT ( 'NONE',  ( -6.350000000000000500, -6.350000000000000500, -3.000000000000000000 ) ) ;
#106 = PERSON_AND_ORGANIZATION_ROLE ( 'design_supplier' ) ;
#107 = APPROVAL_ROLE ( '' ) ;
#108 = VECTOR ( 'NONE', #84, 1000.000000000000000 ) ;
#109 = PLANE ( 'NONE',  #211 ) ;
#110 = EDGE_CURVE ( 'NONE', #51, #235, #57, .T. ) ;
#111 = LINE ( 'NONE', #105, #200 ) ;
#112 = LOCAL_TIME ( 9, 1, 48.00000000000000000, #236 ) ;
#113 = CC_DESIGN_APPROVAL ( #54, ( #73 ) ) ;
#114 = ORIENTED_EDGE ( 'NONE', *, *, #132, .F. ) ;
#115 = COORDINATED_UNIVERSAL_TIME_OFFSET ( 5, 0, .BEHIND. ) ;
#116 = PRODUCT_DEFINITION_SHAPE ( 'NONE', 'NONE',  #231 ) ;
#117 = AXIS2_PLACEMENT_3D ( 'NONE', #19, #142, #62 ) ;
#118 = DATE_AND_TIME ( #143, #168 ) ;
#119 = APPROVAL_ROLE ( '' ) ;
#120 = EDGE_LOOP ( 'NONE', ( #188, #161, #130, #152 ) ) ;
#121 = EDGE_CURVE ( 'NONE', #85, #46, #111, .T. ) ;
#122 = CARTESIAN_POINT ( 'NONE',  ( 0.0000000000000000000, 0.0000000000000000000, -3.000000000000000000 ) ) ;
#123 = PERSON_AND_ORGANIZATION ( #196, #174 ) ;
#124 = CARTESIAN_POINT ( 'NONE',  ( 6.349999999999998800, -6.349999999999998800, -3.000000000000000000 ) ) ;
#125 = AXIS2_PLACEMENT_3D ( 'NONE', #185, #22, #207 ) ;
#126 = VECTOR ( 'NONE', #175, 1000.000000000000000 ) ;
#127 = VECTOR ( 'NONE', #71, 1000.000000000000000 ) ;
#128 =( GEOMETRIC_REPRESENTATION_CONTEXT ( 3 ) GLOBAL_UNCERTAINTY_ASSIGNED_CONTEXT ( ( #98 ) ) GLOBAL_UNIT_ASSIGNED_CONTEXT ( ( #138, #162, #177 ) ) REPRESENTATION_CONTEXT ( 'NONE', 'WORKASPACE' ) );
#129 = ADVANCED_FACE ( 'NONE', ( #97 ), #30, .F. ) ;
#130 = ORIENTED_EDGE ( 'NONE', *, *, #110, .F. ) ;
#131 = PERSON_AND_ORGANIZATION ( #196, #174 ) ;
#132 = EDGE_CURVE ( 'NONE', #72, #51, #83, .T. ) ;
#133 = DIRECTION ( 'NONE',  ( -1.365923996832131600E-016, 1.000000000000000000, 0.0000000000000000000 ) ) ;
#134 = EDGE_LOOP ( 'NONE', ( #195, #47, #35, #102 ) ) ;
#135 = PERSON_AND_ORGANIZATION ( #196, #174 ) ;
#136 = APPROVAL_ROLE ( '' ) ;
#137 = DATE_TIME_ROLE ( 'classification_date' ) ;
#138 =( LENGTH_UNIT ( ) NAMED_UNIT ( * ) SI_UNIT ( .MILLI., .METRE. ) );
#139 = DIRECTION ( 'NONE',  ( 1.000000000000000000, 0.0000000000000000000, -0.0000000000000000000 ) ) ;
#140 = ORIENTED_EDGE ( 'NONE', *, *, #209, .T. ) ;
#141 = PERSON_AND_ORGANIZATION ( #196, #174 ) ;
#142 = DIRECTION ( 'NONE',  ( -1.000000000000000000, 0.0000000000000000000, 0.0000000000000000000 ) ) ;
#143 = CALENDAR_DATE ( 2017, 30, 10 ) ;
#144 = VECTOR ( 'NONE', #24, 1000.000000000000000 ) ;
#145 = DATE_AND_TIME ( #229, #154 ) ;
#146 = COORDINATED_UNIVERSAL_TIME_OFFSET ( 5, 0, .BEHIND. ) ;
#147 = DESIGN_CONTEXT ( 'detailed design', #179, 'design' ) ;
#148 = CC_DESIGN_PERSON_AND_ORGANIZATION_ASSIGNMENT ( #224, #233, ( #82 ) ) ;
#149 = CLOSED_SHELL ( 'NONE', ( #81, #129, #43, #213, #44, #190 ) ) ;
#150 = ORIENTED_EDGE ( 'NONE', *, *, #220, .F. ) ;
#151 = CC_DESIGN_PERSON_AND_ORGANIZATION_ASSIGNMENT ( #135, #237, ( #73 ) ) ;
#152 = ORIENTED_EDGE ( 'NONE', *, *, #220, .T. ) ;
#153 = AXIS2_PLACEMENT_3D ( 'NONE', #222, #4, #216 ) ;
#154 = LOCAL_TIME ( 9, 1, 48.00000000000000000, #115 ) ;
#155 = DIRECTION ( 'NONE',  ( -1.000000000000000000, -1.365923996832131600E-016, 0.0000000000000000000 ) ) ;
#156 = AXIS2_PLACEMENT_3D ( 'NONE', #27, #79, #189 ) ;
#157 = VECTOR ( 'NONE', #36, 1000.000000000000000 ) ;
#158 = FACE_OUTER_BOUND ( 'NONE', #78, .T. ) ;
#159 = SECURITY_CLASSIFICATION_LEVEL ( 'unclassified' ) ;
#160 = CC_DESIGN_APPROVAL ( #234, ( #231 ) ) ;
#161 = ORIENTED_EDGE ( 'NONE', *, *, #184, .F. ) ;
#162 =( NAMED_UNIT ( * ) PLANE_ANGLE_UNIT ( ) SI_UNIT ( $, .RADIAN. ) );
#163 = CC_DESIGN_PERSON_AND_ORGANIZATION_ASSIGNMENT ( #141, #34, ( #166 ) ) ;
#164 = PERSON_AND_ORGANIZATION ( #196, #174 ) ;
#165 = PERSON_AND_ORGANIZATION ( #196, #174 ) ;
#166 = SECURITY_CLASSIFICATION ( '', '', #159 ) ;
#167 = VECTOR ( 'NONE', #48, 1000.000000000000000 ) ;
#168 = LOCAL_TIME ( 9, 1, 48.00000000000000000, #31 ) ;
#169 = PLANE ( 'NONE',  #156 ) ;
#170 = APPROVAL_PERSON_ORGANIZATION ( #123, #234, #107 ) ;
#171 = LINE ( 'NONE', #124, #210 ) ;
#172 = EDGE_CURVE ( 'NONE', #235, #228, #6, .T. ) ;
#173 = CARTESIAN_POINT ( 'NONE',  ( -6.350000000000000500, -6.350000000000000500, 3.000000000000000000 ) ) ;
#174 = ORGANIZATION ( 'UNSPECIFIED', 'UNSPECIFIED', '' ) ;
#175 = DIRECTION ( 'NONE',  ( -0.0000000000000000000, -1.000000000000000000, -0.0000000000000000000 ) ) ;
#176 = APPLICATION_PROTOCOL_DEFINITION ( 'international standard', 'config_control_design', 1994, #179 ) ;
#177 =( NAMED_UNIT ( * ) SI_UNIT ( $, .STERADIAN. ) SOLID_ANGLE_UNIT ( ) );
#178 = LINE ( 'NONE', #230, #93 ) ;
#179 = APPLICATION_CONTEXT ( 'configuration controlled 3d designs of mechanical parts and assemblies' ) ;
#180 = APPROVAL_STATUS ( 'not_yet_approved' ) ;
#181 = MANIFOLD_SOLID_BREP ( 'Boss-Extrude1', #149 ) ;
#182 = PLANE ( 'NONE',  #25 ) ;
#183 = CARTESIAN_POINT ( 'NONE',  ( 6.349999999999998800, 6.350000000000000500, 3.000000000000000000 ) ) ;
#184 = EDGE_CURVE ( 'NONE', #235, #46, #227, .T. ) ;
#185 = CARTESIAN_POINT ( 'NONE',  ( 0.0000000000000000000, 0.0000000000000000000, 3.000000000000000000 ) ) ;
#186 = CARTESIAN_POINT ( 'NONE',  ( 6.349999999999998800, 6.350000000000000500, -3.000000000000000000 ) ) ;
#187 = VECTOR ( 'NONE', #40, 1000.000000000000000 ) ;
#188 = ORIENTED_EDGE ( 'NONE', *, *, #121, .T. ) ;
#189 = DIRECTION ( 'NONE',  ( 0.0000000000000000000, 0.0000000000000000000, -1.000000000000000000 ) ) ;
#190 = ADVANCED_FACE ( 'NONE', ( #193 ), #109, .F. ) ;
#191 = ORIENTED_EDGE ( 'NONE', *, *, #94, .F. ) ;
#192 = SHAPE_DEFINITION_REPRESENTATION ( #116, #203 ) ;
#193 = FACE_OUTER_BOUND ( 'NONE', #41, .T. ) ;
#194 = EDGE_CURVE ( 'NONE', #228, #72, #77, .T. ) ;
#195 = ORIENTED_EDGE ( 'NONE', *, *, #110, .T. ) ;
#196 = PERSON ( 'UNSPECIFIED', 'UNSPECIFIED', 'UNSPECIFIED', ('UNSPECIFIED'), ('UNSPECIFIED'), ('UNSPECIFIED') ) ;
#197 = CARTESIAN_POINT ( 'NONE',  ( 6.349999999999998800, 6.350000000000000500, -3.000000000000000000 ) ) ;
#198 = VECTOR ( 'NONE', #223, 1000.000000000000000 ) ;
#199 = LINE ( 'NONE', #226, #157 ) ;
#200 = VECTOR ( 'NONE', #217, 1000.000000000000000 ) ;
#201 = CALENDAR_DATE ( 2017, 30, 10 ) ;
#202 = APPROVAL_STATUS ( 'not_yet_approved' ) ;
#203 = ADVANCED_BREP_SHAPE_REPRESENTATION ( 'Web Model 64397MX_43771', ( #181, #153 ), #128 ) ;
#204 = ORIENTED_EDGE ( 'NONE', *, *, #172, .F. ) ;
#205 = CARTESIAN_POINT ( 'NONE',  ( 6.349999999999998800, -6.349999999999998800, -3.000000000000000000 ) ) ;
#206 = ORIENTED_EDGE ( 'NONE', *, *, #5, .F. ) ;
#207 = DIRECTION ( 'NONE',  ( 1.000000000000000000, 0.0000000000000000000, -0.0000000000000000000 ) ) ;
#208 = DIRECTION ( 'NONE',  ( 1.365923996832131600E-016, -1.000000000000000000, 0.0000000000000000000 ) ) ;
#209 = EDGE_CURVE ( 'NONE', #228, #29, #74, .T. ) ;
#210 = VECTOR ( 'NONE', #92, 1000.000000000000000 ) ;
#211 = AXIS2_PLACEMENT_3D ( 'NONE', #122, #58, #139 ) ;
#212 = ORIENTED_EDGE ( 'NONE', *, *, #13, .T. ) ;
#213 = ADVANCED_FACE ( 'NONE', ( #90 ), #182, .F. ) ;
#214 = LOCAL_TIME ( 9, 1, 48.00000000000000000, #146 ) ;
#215 = ORIENTED_EDGE ( 'NONE', *, *, #76, .F. ) ;
#216 = DIRECTION ( 'NONE',  ( 1.000000000000000000, 0.0000000000000000000, 0.0000000000000000000 ) ) ;
#217 = DIRECTION ( 'NONE',  ( -0.0000000000000000000, -1.000000000000000000, -0.0000000000000000000 ) ) ;
#218 = LOCAL_TIME ( 9, 1, 48.00000000000000000, #96 ) ;
#219 = CARTESIAN_POINT ( 'NONE',  ( 6.349999999999998800, 6.350000000000000500, 3.000000000000000000 ) ) ;
#220 = EDGE_CURVE ( 'NONE', #51, #85, #199, .T. ) ;
#221 = ORIENTED_EDGE ( 'NONE', *, *, #94, .T. ) ;
#222 = CARTESIAN_POINT ( 'NONE',  ( 0.0000000000000000000, 0.0000000000000000000, 0.0000000000000000000 ) ) ;
#223 = DIRECTION ( 'NONE',  ( -0.0000000000000000000, -0.0000000000000000000, -1.000000000000000000 ) ) ;
#224 = PERSON_AND_ORGANIZATION ( #196, #174 ) ;
#225 = PLANE ( 'NONE',  #117 ) ;
#226 = CARTESIAN_POINT ( 'NONE',  ( -6.350000000000000500, 6.349999999999998800, 3.000000000000000000 ) ) ;
#227 = LINE ( 'NONE', #50, #198 ) ;
#228 = VERTEX_POINT ( 'NONE', #23 ) ;
#229 = CALENDAR_DATE ( 2017, 30, 10 ) ;
#230 = CARTESIAN_POINT ( 'NONE',  ( 6.349999999999998800, 6.350000000000000500, 3.000000000000000000 ) ) ;
#231 = PRODUCT_DEFINITION ( 'UNKNOWN', '', #73, #147 ) ;
#232 = LINE ( 'NONE', #186, #144 ) ;
#233 = PERSON_AND_ORGANIZATION_ROLE ( 'design_owner' ) ;
#234 = APPROVAL ( #180, 'UNSPECIFIED' ) ;
#235 = VERTEX_POINT ( 'NONE', #55 ) ;
#236 = COORDINATED_UNIVERSAL_TIME_OFFSET ( 5, 0, .BEHIND. ) ;
#237 = PERSON_AND_ORGANIZATION_ROLE ( 'creator' ) ;
ENDSEC;
END-ISO-10303-21;
