ISO-10303-21;
HEADER;
FILE_DESCRIPTION (( 'STEP AP203' ),
    '1' );
FILE_NAME ('Web Model 47126_47783.step',
    '2017-06-06T16:55:05',
    ( '' ),
    ( '' ),
    'SwSTEP 2.0',
    'SolidWorks 2016',
    '' );
FILE_SCHEMA (( 'CONFIG_CONTROL_DESIGN' ));
ENDSEC;

DATA;
#1 = PLANE ( 'NONE',  #25 ) ;
#2 = DIRECTION ( 'NONE',  ( -0.7071067811865474600, 0.7071067811865474600, 0.0000000000000000000 ) ) ;
#3 = VECTOR ( 'NONE', #254, 1000.000000000000000 ) ;
#4 =( GEOMETRIC_REPRESENTATION_CONTEXT ( 3 ) GLOBAL_UNCERTAINTY_ASSIGNED_CONTEXT ( ( #202 ) ) GLOBAL_UNIT_ASSIGNED_CONTEXT ( ( #233, #24, #286 ) ) REPRESENTATION_CONTEXT ( 'NONE', 'WORKASPACE' ) );
#5 = MANIFOLD_SOLID_BREP ( 'Boss-Extrude2', #26 ) ;
#6 = LINE ( 'NONE', #241, #140 ) ;
#7 = EDGE_CURVE ( 'NONE', #100, #130, #82, .T. ) ;
#8 = DIRECTION ( 'NONE',  ( -0.0000000000000000000, 0.0000000000000000000, 1.000000000000000000 ) ) ;
#9 = COORDINATED_UNIVERSAL_TIME_OFFSET ( 5, 0, .BEHIND. ) ;
#10 = DIRECTION ( 'NONE',  ( 0.0000000000000000000, 1.000000000000000000, 0.0000000000000000000 ) ) ;
#11 = CARTESIAN_POINT ( 'NONE',  ( -10.00000000000000000, 10.00000000000000000, -10.00000000000000000 ) ) ;
#12 = DIRECTION ( 'NONE',  ( 0.0000000000000000000, -0.0000000000000000000, 1.000000000000000000 ) ) ;
#13 = VECTOR ( 'NONE', #290, 1000.000000000000000 ) ;
#14 = PLANE ( 'NONE',  #306 ) ;
#15 = APPROVAL ( #195, 'UNSPECIFIED' ) ;
#16 = ORIENTED_EDGE ( 'NONE', *, *, #276, .F. ) ;
#17 = APPROVAL_PERSON_ORGANIZATION ( #194, #139, #229 ) ;
#18 = LOCAL_TIME ( 12, 55, 5.000000000000000000, #176 ) ;
#19 = ORIENTED_EDGE ( 'NONE', *, *, #161, .T. ) ;
#20 = DIRECTION ( 'NONE',  ( 0.0000000000000000000, 0.0000000000000000000, 1.000000000000000000 ) ) ;
#21 = VECTOR ( 'NONE', #138, 1000.000000000000000 ) ;
#22 = LINE ( 'NONE', #59, #318 ) ;
#23 = VERTEX_POINT ( 'NONE', #149 ) ;
#24 =( NAMED_UNIT ( * ) PLANE_ANGLE_UNIT ( ) SI_UNIT ( $, .RADIAN. ) );
#25 = AXIS2_PLACEMENT_3D ( 'NONE', #291, #201, #48 ) ;
#26 = CLOSED_SHELL ( 'NONE', ( #154, #295, #84, #313, #56 ) ) ;
#27 = DIRECTION ( 'NONE',  ( 0.7071067811865474600, -0.7071067811865474600, 0.0000000000000000000 ) ) ;
#28 = CARTESIAN_POINT ( 'NONE',  ( 0.0000000000000000000, 0.0000000000000000000, 10.00000000000000000 ) ) ;
#29 = AXIS2_PLACEMENT_3D ( 'NONE', #60, #8, #277 ) ;
#30 = EDGE_CURVE ( 'NONE', #100, #75, #58, .T. ) ;
#31 = CARTESIAN_POINT ( 'NONE',  ( 10.00000000000000000, 0.0000000000000000000, 10.00000000000000000 ) ) ;
#32 = CC_DESIGN_APPROVAL ( #15, ( #283 ) ) ;
#33 = VERTEX_POINT ( 'NONE', #71 ) ;
#34 = PLANE ( 'NONE',  #29 ) ;
#35 = CARTESIAN_POINT ( 'NONE',  ( 10.00000000000000000, -10.00000000000000000, -10.00000000000000000 ) ) ;
#36 = CARTESIAN_POINT ( 'NONE',  ( -10.00000000000000000, 10.00000000000000000, 10.00000000000000000 ) ) ;
#37 = CARTESIAN_POINT ( 'NONE',  ( -10.00000000000000000, 10.00000000000000000, -10.00000000000000000 ) ) ;
#38 = PERSON_AND_ORGANIZATION_ROLE ( 'design_owner' ) ;
#39 = CARTESIAN_POINT ( 'NONE',  ( 10.00000000000000000, -10.00000000000000000, -10.00000000000000000 ) ) ;
#40 = ORIENTED_EDGE ( 'NONE', *, *, #203, .T. ) ;
#41 = LOCAL_TIME ( 12, 55, 5.000000000000000000, #317 ) ;
#42 = ORIENTED_EDGE ( 'NONE', *, *, #119, .F. ) ;
#43 = EDGE_CURVE ( 'NONE', #23, #107, #151, .T. ) ;
#44 = VECTOR ( 'NONE', #117, 1000.000000000000000 ) ;
#45 = LINE ( 'NONE', #31, #13 ) ;
#46 = CC_DESIGN_SECURITY_CLASSIFICATION ( #283, ( #204 ) ) ;
#47 = DIRECTION ( 'NONE',  ( 1.000000000000000000, 0.0000000000000000000, 0.0000000000000000000 ) ) ;
#48 = DIRECTION ( 'NONE',  ( 1.000000000000000000, 0.0000000000000000000, 0.0000000000000000000 ) ) ;
#49 = EDGE_LOOP ( 'NONE', ( #144, #79, #272, #178 ) ) ;
#50 = FACE_OUTER_BOUND ( 'NONE', #314, .T. ) ;
#51 = PLANE ( 'NONE',  #236 ) ;
#52 = ORIENTED_EDGE ( 'NONE', *, *, #245, .T. ) ;
#53 = CARTESIAN_POINT ( 'NONE',  ( 0.0000000000000000000, 10.00000000000000000, 10.00000000000000000 ) ) ;
#54 = PERSON_AND_ORGANIZATION_ROLE ( 'classification_officer' ) ;
#55 = EDGE_CURVE ( 'NONE', #23, #68, #275, .T. ) ;
#56 = ADVANCED_FACE ( 'NONE', ( #108 ), #249, .F. ) ;
#57 = CARTESIAN_POINT ( 'NONE',  ( -10.00000000000000000, 0.0000000000000000000, 10.00000000000000000 ) ) ;
#58 = LINE ( 'NONE', #266, #152 ) ;
#59 = CARTESIAN_POINT ( 'NONE',  ( -0.0000000000000000000, 0.0000000000000000000, -10.00000000000000000 ) ) ;
#60 = CARTESIAN_POINT ( 'NONE',  ( 0.0000000000000000000, 0.0000000000000000000, 10.00000000000000000 ) ) ;
#61 = DIRECTION ( 'NONE',  ( -0.0000000000000000000, -0.0000000000000000000, -1.000000000000000000 ) ) ;
#62 = VECTOR ( 'NONE', #61, 1000.000000000000000 ) ;
#63 = DIRECTION ( 'NONE',  ( 0.0000000000000000000, 0.0000000000000000000, 1.000000000000000000 ) ) ;
#64 = LOCAL_TIME ( 12, 55, 5.000000000000000000, #255 ) ;
#65 = PERSON_AND_ORGANIZATION ( #296, #136 ) ;
#66 = PLANE ( 'NONE',  #207 ) ;
#67 = FACE_OUTER_BOUND ( 'NONE', #110, .T. ) ;
#68 = VERTEX_POINT ( 'NONE', #106 ) ;
#69 = FACE_OUTER_BOUND ( 'NONE', #182, .T. ) ;
#70 = DIRECTION ( 'NONE',  ( -0.7071067811865474600, 0.7071067811865474600, 0.0000000000000000000 ) ) ;
#71 = CARTESIAN_POINT ( 'NONE',  ( -10.00000000000000000, -10.00000000000000000, -10.00000000000000000 ) ) ;
#72 = APPROVAL_DATE_TIME ( #213, #15 ) ;
#73 = EDGE_CURVE ( 'NONE', #107, #68, #45, .T. ) ;
#74 = CARTESIAN_POINT ( 'NONE',  ( -10.00000000000000000, 10.00000000000000000, 10.00000000000000000 ) ) ;
#75 = VERTEX_POINT ( 'NONE', #316 ) ;
#76 = DATE_AND_TIME ( #163, #41 ) ;
#77 = LINE ( 'NONE', #191, #109 ) ;
#78 = CARTESIAN_POINT ( 'NONE',  ( -10.00000000000000000, -10.00000000000000000, 10.00000000000000000 ) ) ;
#79 = ORIENTED_EDGE ( 'NONE', *, *, #96, .F. ) ;
#80 = DIRECTION ( 'NONE',  ( 0.0000000000000000000, -0.0000000000000000000, 1.000000000000000000 ) ) ;
#81 = CARTESIAN_POINT ( 'NONE',  ( 10.00000000000000000, -10.00000000000000000, 10.00000000000000000 ) ) ;
#82 = LINE ( 'NONE', #102, #308 ) ;
#83 = DIRECTION ( 'NONE',  ( -0.0000000000000000000, -0.0000000000000000000, -1.000000000000000000 ) ) ;
#84 = ADVANCED_FACE ( 'NONE', ( #289 ), #51, .T. ) ;
#85 = PERSON_AND_ORGANIZATION ( #296, #136 ) ;
#86 = AXIS2_PLACEMENT_3D ( 'NONE', #93, #20, #168 ) ;
#87 = DIRECTION ( 'NONE',  ( 0.0000000000000000000, 0.0000000000000000000, 1.000000000000000000 ) ) ;
#88 = PERSON_AND_ORGANIZATION_ROLE ( 'creator' ) ;
#89 = CLOSED_SHELL ( 'NONE', ( #299, #156, #224, #223, #269 ) ) ;
#90 = PLANE ( 'NONE',  #271 ) ;
#91 = ORIENTED_EDGE ( 'NONE', *, *, #96, .T. ) ;
#92 = DIRECTION ( 'NONE',  ( -1.000000000000000000, 0.0000000000000000000, 0.0000000000000000000 ) ) ;
#93 = CARTESIAN_POINT ( 'NONE',  ( 0.0000000000000000000, 0.0000000000000000000, 0.0000000000000000000 ) ) ;
#94 = PRODUCT_DEFINITION_SHAPE ( 'NONE', 'NONE',  #129 ) ;
#95 = ORIENTED_EDGE ( 'NONE', *, *, #292, .F. ) ;
#96 = EDGE_CURVE ( 'NONE', #68, #75, #309, .T. ) ;
#97 = VERTEX_POINT ( 'NONE', #39 ) ;
#98 = DIRECTION ( 'NONE',  ( 1.000000000000000000, 0.0000000000000000000, 0.0000000000000000000 ) ) ;
#99 = DIRECTION ( 'NONE',  ( 0.7071067811865475700, 0.7071067811865475700, -0.0000000000000000000 ) ) ;
#100 = VERTEX_POINT ( 'NONE', #11 ) ;
#101 = ORIENTED_EDGE ( 'NONE', *, *, #55, .T. ) ;
#102 = CARTESIAN_POINT ( 'NONE',  ( -0.0000000000000000000, 0.0000000000000000000, -10.00000000000000000 ) ) ;
#103 = ORIENTED_EDGE ( 'NONE', *, *, #292, .T. ) ;
#104 = VECTOR ( 'NONE', #133, 1000.000000000000100 ) ;
#105 = CC_DESIGN_PERSON_AND_ORGANIZATION_ASSIGNMENT ( #274, #38, ( #237 ) ) ;
#106 = CARTESIAN_POINT ( 'NONE',  ( 10.00000000000000000, 10.00000000000000000, 10.00000000000000000 ) ) ;
#107 = VERTEX_POINT ( 'NONE', #189 ) ;
#108 = FACE_OUTER_BOUND ( 'NONE', #181, .T. ) ;
#109 = VECTOR ( 'NONE', #165, 1000.000000000000000 ) ;
#110 = EDGE_LOOP ( 'NONE', ( #260, #52, #16 ) ) ;
#111 = VECTOR ( 'NONE', #258, 1000.000000000000100 ) ;
#112 = ORIENTED_EDGE ( 'NONE', *, *, #245, .F. ) ;
#113 = DATE_AND_TIME ( #285, #18 ) ;
#114 = DIRECTION ( 'NONE',  ( 0.0000000000000000000, 1.000000000000000000, -0.0000000000000000000 ) ) ;
#115 = EDGE_LOOP ( 'NONE', ( #248, #95, #265, #301 ) ) ;
#116 = ORIENTED_EDGE ( 'NONE', *, *, #132, .T. ) ;
#117 = DIRECTION ( 'NONE',  ( -0.0000000000000000000, -0.0000000000000000000, -1.000000000000000000 ) ) ;
#118 = DIRECTION ( 'NONE',  ( -0.0000000000000000000, 0.0000000000000000000, 1.000000000000000000 ) ) ;
#119 = EDGE_CURVE ( 'NONE', #130, #75, #242, .T. ) ;
#120 = EDGE_LOOP ( 'NONE', ( #253, #281, #320, #116 ) ) ;
#121 = CARTESIAN_POINT ( 'NONE',  ( -10.00000000000000000, 10.00000000000000000, 10.00000000000000000 ) ) ;
#122 = LINE ( 'NONE', #257, #3 ) ;
#123 = APPLICATION_PROTOCOL_DEFINITION ( 'international standard', 'config_control_design', 1994, #259 ) ;
#124 = DESIGN_CONTEXT ( 'detailed design', #259, 'design' ) ;
#125 = PERSON_AND_ORGANIZATION ( #296, #136 ) ;
#126 = VECTOR ( 'NONE', #114, 1000.000000000000000 ) ;
#127 = PRODUCT_RELATED_PRODUCT_CATEGORY ( 'detail', '', ( #237 ) ) ;
#128 = APPLICATION_PROTOCOL_DEFINITION ( 'international standard', 'config_control_design', 1994, #166 ) ;
#129 = PRODUCT_DEFINITION ( 'UNKNOWN', '', #204, #124 ) ;
#130 = VERTEX_POINT ( 'NONE', #35 ) ;
#131 = CARTESIAN_POINT ( 'NONE',  ( 0.0000000000000000000, 0.0000000000000000000, -10.00000000000000000 ) ) ;
#132 = EDGE_CURVE ( 'NONE', #23, #100, #169, .T. ) ;
#133 = DIRECTION ( 'NONE',  ( 0.7071067811865474600, -0.7071067811865474600, 0.0000000000000000000 ) ) ;
#134 = APPROVAL_PERSON_ORGANIZATION ( #143, #15, #145 ) ;
#135 = ORIENTED_EDGE ( 'NONE', *, *, #7, .F. ) ;
#136 = ORGANIZATION ( 'UNSPECIFIED', 'UNSPECIFIED', '' ) ;
#137 = EDGE_LOOP ( 'NONE', ( #150, #184, #40, #103 ) ) ;
#138 = DIRECTION ( 'NONE',  ( 1.000000000000000000, 0.0000000000000000000, 0.0000000000000000000 ) ) ;
#139 = APPROVAL ( #209, 'UNSPECIFIED' ) ;
#140 = VECTOR ( 'NONE', #177, 1000.000000000000000 ) ;
#141 = CALENDAR_DATE ( 2017, 6, 6 ) ;
#142 = ORIENTED_EDGE ( 'NONE', *, *, #226, .F. ) ;
#143 = PERSON_AND_ORGANIZATION ( #296, #136 ) ;
#144 = ORIENTED_EDGE ( 'NONE', *, *, #119, .T. ) ;
#145 = APPROVAL_ROLE ( '' ) ;
#146 = EDGE_CURVE ( 'NONE', #33, #188, #321, .T. ) ;
#147 = PERSON_AND_ORGANIZATION_ROLE ( 'design_supplier' ) ;
#148 = CALENDAR_DATE ( 2017, 6, 6 ) ;
#149 = CARTESIAN_POINT ( 'NONE',  ( -10.00000000000000000, 10.00000000000000000, 10.00000000000000000 ) ) ;
#150 = ORIENTED_EDGE ( 'NONE', *, *, #146, .F. ) ;
#151 = LINE ( 'NONE', #244, #104 ) ;
#152 = VECTOR ( 'NONE', #98, 1000.000000000000000 ) ;
#153 = CC_DESIGN_APPROVAL ( #139, ( #129 ) ) ;
#154 = ADVANCED_FACE ( 'NONE', ( #186 ), #90, .T. ) ;
#155 = VERTEX_POINT ( 'NONE', #81 ) ;
#156 = ADVANCED_FACE ( 'NONE', ( #193 ), #14, .F. ) ;
#157 = VECTOR ( 'NONE', #173, 1000.000000000000000 ) ;
#158 = ORIENTED_EDGE ( 'NONE', *, *, #30, .T. ) ;
#159 = LINE ( 'NONE', #121, #62 ) ;
#160 = DIRECTION ( 'NONE',  ( 1.000000000000000000, 0.0000000000000000000, 0.0000000000000000000 ) ) ;
#161 = EDGE_CURVE ( 'NONE', #33, #97, #122, .T. ) ;
#162 = FACE_OUTER_BOUND ( 'NONE', #310, .T. ) ;
#163 = CALENDAR_DATE ( 2017, 6, 6 ) ;
#164 = CARTESIAN_POINT ( 'NONE',  ( 0.0000000000000000000, 0.0000000000000000000, 10.00000000000000000 ) ) ;
#165 = DIRECTION ( 'NONE',  ( -0.0000000000000000000, -0.0000000000000000000, -1.000000000000000000 ) ) ;
#166 = APPLICATION_CONTEXT ( 'configuration controlled 3d designs of mechanical parts and assemblies' ) ;
#167 = PERSON_AND_ORGANIZATION_ROLE ( 'creator' ) ;
#168 = DIRECTION ( 'NONE',  ( 1.000000000000000000, 0.0000000000000000000, 0.0000000000000000000 ) ) ;
#169 = LINE ( 'NONE', #74, #44 ) ;
#170 = VECTOR ( 'NONE', #83, 1000.000000000000000 ) ;
#171 = CC_DESIGN_PERSON_AND_ORGANIZATION_ASSIGNMENT ( #232, #88, ( #129 ) ) ;
#172 = LINE ( 'NONE', #187, #196 ) ;
#173 = DIRECTION ( 'NONE',  ( -0.0000000000000000000, -0.0000000000000000000, -1.000000000000000000 ) ) ;
#174 = LINE ( 'NONE', #164, #111 ) ;
#175 = CARTESIAN_POINT ( 'NONE',  ( 0.0000000000000000000, 0.0000000000000000000, 10.00000000000000000 ) ) ;
#176 = COORDINATED_UNIVERSAL_TIME_OFFSET ( 5, 0, .BEHIND. ) ;
#177 = DIRECTION ( 'NONE',  ( -0.0000000000000000000, -0.0000000000000000000, -1.000000000000000000 ) ) ;
#178 = ORIENTED_EDGE ( 'NONE', *, *, #312, .T. ) ;
#179 = ORIENTED_EDGE ( 'NONE', *, *, #55, .F. ) ;
#180 = LINE ( 'NONE', #228, #170 ) ;
#181 = EDGE_LOOP ( 'NONE', ( #235, #246, #282 ) ) ;
#182 = EDGE_LOOP ( 'NONE', ( #19, #142, #112, #298 ) ) ;
#183 = DIRECTION ( 'NONE',  ( 0.0000000000000000000, 1.000000000000000000, -0.0000000000000000000 ) ) ;
#184 = ORIENTED_EDGE ( 'NONE', *, *, #216, .F. ) ;
#185 = EDGE_LOOP ( 'NONE', ( #251, #238, #101, #91 ) ) ;
#186 = FACE_OUTER_BOUND ( 'NONE', #137, .T. ) ;
#187 = CARTESIAN_POINT ( 'NONE',  ( -10.00000000000000000, 0.0000000000000000000, 10.00000000000000000 ) ) ;
#188 = VERTEX_POINT ( 'NONE', #37 ) ;
#189 = CARTESIAN_POINT ( 'NONE',  ( 10.00000000000000000, -10.00000000000000000, 10.00000000000000000 ) ) ;
#190 = CC_DESIGN_DATE_AND_TIME_ASSIGNMENT ( #113, #192, ( #129 ) ) ;
#191 = CARTESIAN_POINT ( 'NONE',  ( -10.00000000000000000, -10.00000000000000000, 10.00000000000000000 ) ) ;
#192 = DATE_TIME_ROLE ( 'creation_date' ) ;
#193 = FACE_OUTER_BOUND ( 'NONE', #49, .T. ) ;
#194 = PERSON_AND_ORGANIZATION ( #296, #136 ) ;
#195 = APPROVAL_STATUS ( 'not_yet_approved' ) ;
#196 = VECTOR ( 'NONE', #183, 1000.000000000000000 ) ;
#197 = CALENDAR_DATE ( 2017, 6, 6 ) ;
#198 = MECHANICAL_CONTEXT ( 'NONE', #166, 'mechanical' ) ;
#199 = LINE ( 'NONE', #230, #21 ) ;
#200 = DIRECTION ( 'NONE',  ( 1.000000000000000000, 0.0000000000000000000, 0.0000000000000000000 ) ) ;
#201 = DIRECTION ( 'NONE',  ( -0.0000000000000000000, 0.0000000000000000000, 1.000000000000000000 ) ) ;
#202 = UNCERTAINTY_MEASURE_WITH_UNIT (LENGTH_MEASURE( 1.000000000000000100E-005 ), #233, 'distance_accuracy_value', 'NONE');
#203 = EDGE_CURVE ( 'NONE', #243, #287, #172, .T. ) ;
#204 = PRODUCT_DEFINITION_FORMATION_WITH_SPECIFIED_SOURCE ( 'ANY', '', #237, .NOT_KNOWN. ) ;
#205 = SHAPE_DEFINITION_REPRESENTATION ( #94, #252 ) ;
#206 = PERSON_AND_ORGANIZATION ( #296, #136 ) ;
#207 = AXIS2_PLACEMENT_3D ( 'NONE', #53, #280, #80 ) ;
#208 = AXIS2_PLACEMENT_3D ( 'NONE', #131, #273, #200 ) ;
#209 = APPROVAL_STATUS ( 'not_yet_approved' ) ;
#210 = CARTESIAN_POINT ( 'NONE',  ( 0.0000000000000000000, 0.0000000000000000000, -10.00000000000000000 ) ) ;
#211 = DIRECTION ( 'NONE',  ( -1.000000000000000000, 0.0000000000000000000, 0.0000000000000000000 ) ) ;
#212 = APPROVAL_PERSON_ORGANIZATION ( #85, #217, #215 ) ;
#213 = DATE_AND_TIME ( #148, #268 ) ;
#214 = ORIENTED_EDGE ( 'NONE', *, *, #73, .T. ) ;
#215 = APPROVAL_ROLE ( '' ) ;
#216 = EDGE_CURVE ( 'NONE', #243, #33, #77, .T. ) ;
#217 = APPROVAL ( #311, 'UNSPECIFIED' ) ;
#218 = PLANE ( 'NONE',  #302 ) ;
#219 = APPROVAL_DATE_TIME ( #262, #217 ) ;
#220 = VECTOR ( 'NONE', #307, 1000.000000000000000 ) ;
#221 = LOCAL_TIME ( 12, 55, 5.000000000000000000, #9 ) ;
#222 = ORIENTED_EDGE ( 'NONE', *, *, #43, .T. ) ;
#223 = ADVANCED_FACE ( 'NONE', ( #162 ), #34, .T. ) ;
#224 = ADVANCED_FACE ( 'NONE', ( #319 ), #66, .T. ) ;
#225 = FACE_OUTER_BOUND ( 'NONE', #120, .T. ) ;
#226 = EDGE_CURVE ( 'NONE', #155, #97, #180, .T. ) ;
#227 = DIRECTION ( 'NONE',  ( 0.7071067811865474600, -0.7071067811865474600, 0.0000000000000000000 ) ) ;
#228 = CARTESIAN_POINT ( 'NONE',  ( 10.00000000000000000, -10.00000000000000000, 10.00000000000000000 ) ) ;
#229 = APPROVAL_ROLE ( '' ) ;
#230 = CARTESIAN_POINT ( 'NONE',  ( 0.0000000000000000000, -10.00000000000000000, 10.00000000000000000 ) ) ;
#231 = CC_DESIGN_APPROVAL ( #217, ( #204 ) ) ;
#232 = PERSON_AND_ORGANIZATION ( #296, #136 ) ;
#233 =( LENGTH_UNIT ( ) NAMED_UNIT ( * ) SI_UNIT ( .MILLI., .METRE. ) );
#234 = AXIS2_PLACEMENT_3D ( 'NONE', #210, #118, #160 ) ;
#235 = ORIENTED_EDGE ( 'NONE', *, *, #146, .T. ) ;
#236 = AXIS2_PLACEMENT_3D ( 'NONE', #175, #247, #2 ) ;
#237 = PRODUCT ( 'Web Model 47126_47783', 'Web Model 47126_47783', '', ( #198 ) ) ;
#238 = ORIENTED_EDGE ( 'NONE', *, *, #132, .F. ) ;
#239 = CARTESIAN_POINT ( 'NONE',  ( 10.00000000000000000, 10.00000000000000000, 10.00000000000000000 ) ) ;
#240 = COORDINATED_UNIVERSAL_TIME_OFFSET ( 5, 0, .BEHIND. ) ;
#241 = CARTESIAN_POINT ( 'NONE',  ( 10.00000000000000000, -10.00000000000000000, 10.00000000000000000 ) ) ;
#242 = LINE ( 'NONE', #303, #126 ) ;
#243 = VERTEX_POINT ( 'NONE', #78 ) ;
#244 = CARTESIAN_POINT ( 'NONE',  ( 0.0000000000000000000, 0.0000000000000000000, 10.00000000000000000 ) ) ;
#245 = EDGE_CURVE ( 'NONE', #243, #155, #199, .T. ) ;
#246 = ORIENTED_EDGE ( 'NONE', *, *, #261, .T. ) ;
#247 = DIRECTION ( 'NONE',  ( 0.7071067811865475700, 0.7071067811865475700, -0.0000000000000000000 ) ) ;
#248 = ORIENTED_EDGE ( 'NONE', *, *, #261, .F. ) ;
#249 = PLANE ( 'NONE',  #208 ) ;
#250 = CC_DESIGN_PERSON_AND_ORGANIZATION_ASSIGNMENT ( #206, #167, ( #204 ) ) ;
#251 = ORIENTED_EDGE ( 'NONE', *, *, #30, .F. ) ;
#252 = ADVANCED_BREP_SHAPE_REPRESENTATION ( 'Web Model 47126_47783', ( #5, #264, #86 ), #4 ) ;
#253 = ORIENTED_EDGE ( 'NONE', *, *, #7, .T. ) ;
#254 = DIRECTION ( 'NONE',  ( 1.000000000000000000, 0.0000000000000000000, 0.0000000000000000000 ) ) ;
#255 = COORDINATED_UNIVERSAL_TIME_OFFSET ( 5, 0, .BEHIND. ) ;
#256 = DATE_TIME_ROLE ( 'classification_date' ) ;
#257 = CARTESIAN_POINT ( 'NONE',  ( 0.0000000000000000000, -10.00000000000000000, -10.00000000000000000 ) ) ;
#258 = DIRECTION ( 'NONE',  ( 0.7071067811865474600, -0.7071067811865474600, 0.0000000000000000000 ) ) ;
#259 = APPLICATION_CONTEXT ( 'configuration controlled 3d designs of mechanical parts and assemblies' ) ;
#260 = ORIENTED_EDGE ( 'NONE', *, *, #203, .F. ) ;
#261 = EDGE_CURVE ( 'NONE', #188, #97, #22, .T. ) ;
#262 = DATE_AND_TIME ( #141, #221 ) ;
#263 = CC_DESIGN_PERSON_AND_ORGANIZATION_ASSIGNMENT ( #65, #147, ( #204 ) ) ;
#264 = MANIFOLD_SOLID_BREP ( 'Boss-Extrude3', #89 ) ;
#265 = ORIENTED_EDGE ( 'NONE', *, *, #276, .T. ) ;
#266 = CARTESIAN_POINT ( 'NONE',  ( -0.0000000000000000000, 10.00000000000000000, -10.00000000000000000 ) ) ;
#267 = CARTESIAN_POINT ( 'NONE',  ( 0.0000000000000000000, 10.00000000000000000, 10.00000000000000000 ) ) ;
#268 = LOCAL_TIME ( 12, 55, 5.000000000000000000, #240 ) ;
#269 = ADVANCED_FACE ( 'NONE', ( #50 ), #278, .F. ) ;
#270 = AXIS2_PLACEMENT_3D ( 'NONE', #304, #10, #12 ) ;
#271 = AXIS2_PLACEMENT_3D ( 'NONE', #57, #211, #63 ) ;
#272 = ORIENTED_EDGE ( 'NONE', *, *, #73, .F. ) ;
#273 = DIRECTION ( 'NONE',  ( -0.0000000000000000000, 0.0000000000000000000, 1.000000000000000000 ) ) ;
#274 = PERSON_AND_ORGANIZATION ( #296, #136 ) ;
#275 = LINE ( 'NONE', #267, #293 ) ;
#276 = EDGE_CURVE ( 'NONE', #287, #155, #174, .T. ) ;
#277 = DIRECTION ( 'NONE',  ( 1.000000000000000000, 0.0000000000000000000, 0.0000000000000000000 ) ) ;
#278 = PLANE ( 'NONE',  #234 ) ;
#279 = DATE_AND_TIME ( #197, #64 ) ;
#280 = DIRECTION ( 'NONE',  ( 0.0000000000000000000, 1.000000000000000000, 0.0000000000000000000 ) ) ;
#281 = ORIENTED_EDGE ( 'NONE', *, *, #312, .F. ) ;
#282 = ORIENTED_EDGE ( 'NONE', *, *, #161, .F. ) ;
#283 = SECURITY_CLASSIFICATION ( '', '', #288 ) ;
#284 = CARTESIAN_POINT ( 'NONE',  ( -10.00000000000000000, 0.0000000000000000000, -10.00000000000000000 ) ) ;
#285 = CALENDAR_DATE ( 2017, 6, 6 ) ;
#286 =( NAMED_UNIT ( * ) SI_UNIT ( $, .STERADIAN. ) SOLID_ANGLE_UNIT ( ) );
#287 = VERTEX_POINT ( 'NONE', #36 ) ;
#288 = SECURITY_CLASSIFICATION_LEVEL ( 'unclassified' ) ;
#289 = FACE_OUTER_BOUND ( 'NONE', #115, .T. ) ;
#290 = DIRECTION ( 'NONE',  ( 0.0000000000000000000, 1.000000000000000000, -0.0000000000000000000 ) ) ;
#291 = CARTESIAN_POINT ( 'NONE',  ( 0.0000000000000000000, 0.0000000000000000000, 10.00000000000000000 ) ) ;
#292 = EDGE_CURVE ( 'NONE', #287, #188, #159, .T. ) ;
#293 = VECTOR ( 'NONE', #47, 1000.000000000000000 ) ;
#294 = CC_DESIGN_PERSON_AND_ORGANIZATION_ASSIGNMENT ( #125, #54, ( #283 ) ) ;
#295 = ADVANCED_FACE ( 'NONE', ( #69 ), #300, .F. ) ;
#296 = PERSON ( 'UNSPECIFIED', 'UNSPECIFIED', 'UNSPECIFIED', ('UNSPECIFIED'), ('UNSPECIFIED'), ('UNSPECIFIED') ) ;
#297 = CARTESIAN_POINT ( 'NONE',  ( 10.00000000000000000, 0.0000000000000000000, 10.00000000000000000 ) ) ;
#298 = ORIENTED_EDGE ( 'NONE', *, *, #216, .T. ) ;
#299 = ADVANCED_FACE ( 'NONE', ( #225 ), #218, .F. ) ;
#300 = PLANE ( 'NONE',  #270 ) ;
#301 = ORIENTED_EDGE ( 'NONE', *, *, #226, .T. ) ;
#302 = AXIS2_PLACEMENT_3D ( 'NONE', #28, #99, #70 ) ;
#303 = CARTESIAN_POINT ( 'NONE',  ( 10.00000000000000000, 0.0000000000000000000, -10.00000000000000000 ) ) ;
#304 = CARTESIAN_POINT ( 'NONE',  ( 0.0000000000000000000, -10.00000000000000000, 10.00000000000000000 ) ) ;
#305 = APPROVAL_DATE_TIME ( #279, #139 ) ;
#306 = AXIS2_PLACEMENT_3D ( 'NONE', #297, #92, #87 ) ;
#307 = DIRECTION ( 'NONE',  ( 0.0000000000000000000, 1.000000000000000000, -0.0000000000000000000 ) ) ;
#308 = VECTOR ( 'NONE', #27, 1000.000000000000100 ) ;
#309 = LINE ( 'NONE', #239, #157 ) ;
#310 = EDGE_LOOP ( 'NONE', ( #222, #214, #179 ) ) ;
#311 = APPROVAL_STATUS ( 'not_yet_approved' ) ;
#312 = EDGE_CURVE ( 'NONE', #107, #130, #6, .T. ) ;
#313 = ADVANCED_FACE ( 'NONE', ( #67 ), #1, .T. ) ;
#314 = EDGE_LOOP ( 'NONE', ( #135, #158, #42 ) ) ;
#315 = CC_DESIGN_DATE_AND_TIME_ASSIGNMENT ( #76, #256, ( #283 ) ) ;
#316 = CARTESIAN_POINT ( 'NONE',  ( 10.00000000000000000, 10.00000000000000000, -10.00000000000000000 ) ) ;
#317 = COORDINATED_UNIVERSAL_TIME_OFFSET ( 5, 0, .BEHIND. ) ;
#318 = VECTOR ( 'NONE', #227, 1000.000000000000100 ) ;
#319 = FACE_OUTER_BOUND ( 'NONE', #185, .T. ) ;
#320 = ORIENTED_EDGE ( 'NONE', *, *, #43, .F. ) ;
#321 = LINE ( 'NONE', #284, #220 ) ;
ENDSEC;
END-ISO-10303-21;
