ISO-10303-21;
HEADER;
FILE_DESCRIPTION (( 'STEP AP214' ),
    '1' );
FILE_NAME ('4444-E0W.STEP',
    '2009-12-21T17:01:38',
    ( ' ' ),
    ( ' ' ),
    'SwSTEP 2.0',
    'SolidWorks 2009',
    '' );
FILE_SCHEMA (( 'AUTOMOTIVE_DESIGN' ));
ENDSEC;

DATA;
#1 = ORIENTED_EDGE ( 'NONE', *, *, #50, .F. ) ;
#2 = ORIENTED_EDGE ( 'NONE', *, *, #4, .F. ) ;
#3 = ORIENTED_EDGE ( 'NONE', *, *, #27, .F. ) ;
#4 = EDGE_CURVE ( 'NONE', #35, #52, #107, .T. ) ;
#5 =( NAMED_UNIT ( * ) SI_UNIT ( $, .STERADIAN. ) SOLID_ANGLE_UNIT ( ) );
#6 = ADVANCED_FACE ( 'NONE', ( #109 ), #108, .T. ) ;
#7 = CLOSED_SHELL ( 'NONE', ( #54, #57, #37, #6, #16 ) ) ;
#8 =( NAMED_UNIT ( * ) PLANE_ANGLE_UNIT ( ) SI_UNIT ( $, .RADIAN. ) );
#9 = DIRECTION ( 'NONE',  ( 1.000000000000000000, 0.0000000000000000000, 0.0000000000000000000 ) ) ;
#10 =( NAMED_UNIT ( * ) SI_UNIT ( $, .STERADIAN. ) SOLID_ANGLE_UNIT ( ) );
#11 = DIRECTION ( 'NONE',  ( -0.0000000000000000000, -0.0000000000000000000, 1.000000000000000000 ) ) ;
#12 = UNCERTAINTY_MEASURE_WITH_UNIT (LENGTH_MEASURE( 1.000000000000000100E-005 ), #159, 'distance_accuracy_value', 'NONE');
#13 =( GEOMETRIC_REPRESENTATION_CONTEXT ( 3 ) GLOBAL_UNCERTAINTY_ASSIGNED_CONTEXT ( ( #12 ) ) GLOBAL_UNIT_ASSIGNED_CONTEXT ( ( #159, #8, #5 ) ) REPRESENTATION_CONTEXT ( 'NONE', 'WORKASPACE' ) );
#14 = CARTESIAN_POINT ( 'NONE',  ( 0.0000000000000000000, 0.0000000000000000000, 0.8416735779942569100 ) ) ;
#15 = ORIENTED_EDGE ( 'NONE', *, *, #22, .F. ) ;
#16 = ADVANCED_FACE ( 'NONE', ( #130 ), #98, .F. ) ;
#17 = ORIENTED_EDGE ( 'NONE', *, *, #21, .T. ) ;
#18 = EDGE_LOOP ( 'NONE', ( #31, #25, #39, #34, #32 ) ) ;
#19 = EDGE_LOOP ( 'NONE', ( #48, #49, #23, #17 ) ) ;
#20 = VERTEX_POINT ( 'NONE', #102 ) ;
#21 = EDGE_CURVE ( 'NONE', #26, #36, #96, .T. ) ;
#22 = EDGE_CURVE ( 'NONE', #20, #40, #123, .T. ) ;
#23 = ORIENTED_EDGE ( 'NONE', *, *, #38, .T. ) ;
#24 = EDGE_CURVE ( 'NONE', #35, #51, #94, .T. ) ;
#25 = ORIENTED_EDGE ( 'NONE', *, *, #24, .T. ) ;
#26 = VERTEX_POINT ( 'NONE', #101 ) ;
#27 = EDGE_CURVE ( 'NONE', #52, #35, #106, .T. ) ;
#28 = ORIENTED_EDGE ( 'NONE', *, *, #56, .T. ) ;
#29 =( NAMED_UNIT ( * ) SI_UNIT ( $, .STERADIAN. ) SOLID_ANGLE_UNIT ( ) );
#30 = ORIENTED_EDGE ( 'NONE', *, *, #50, .T. ) ;
#31 = ORIENTED_EDGE ( 'NONE', *, *, #27, .T. ) ;
#32 = ORIENTED_EDGE ( 'NONE', *, *, #33, .F. ) ;
#33 = EDGE_CURVE ( 'NONE', #52, #40, #135, .T. ) ;
#34 = ORIENTED_EDGE ( 'NONE', *, *, #38, .F. ) ;
#35 = VERTEX_POINT ( 'NONE', #147 ) ;
#36 = VERTEX_POINT ( 'NONE', #133 ) ;
#37 = ADVANCED_FACE ( 'NONE', ( #150 ), #136, .T. ) ;
#38 = EDGE_CURVE ( 'NONE', #40, #26, #158, .T. ) ;
#39 = ORIENTED_EDGE ( 'NONE', *, *, #56, .F. ) ;
#40 = VERTEX_POINT ( 'NONE', #174 ) ;
#41 = ORIENTED_EDGE ( 'NONE', *, *, #53, .T. ) ;
#42 = EDGE_LOOP ( 'NONE', ( #45, #43, #46, #15, #1 ) ) ;
#43 = ORIENTED_EDGE ( 'NONE', *, *, #4, .T. ) ;
#44 = EDGE_LOOP ( 'NONE', ( #3, #2 ) ) ;
#45 = ORIENTED_EDGE ( 'NONE', *, *, #24, .F. ) ;
#46 = ORIENTED_EDGE ( 'NONE', *, *, #33, .T. ) ;
#47 = MANIFOLD_SOLID_BREP ( 'NONE', #7 ) ;
#48 = ORIENTED_EDGE ( 'NONE', *, *, #53, .F. ) ;
#49 = ORIENTED_EDGE ( 'NONE', *, *, #22, .T. ) ;
#50 = EDGE_CURVE ( 'NONE', #51, #20, #126, .T. ) ;
#51 = VERTEX_POINT ( 'NONE', #175 ) ;
#52 = VERTEX_POINT ( 'NONE', #176 ) ;
#53 = EDGE_CURVE ( 'NONE', #20, #36, #209, .T. ) ;
#54 = ADVANCED_FACE ( 'NONE', ( #196 ), #214, .T. ) ;
#55 = ORIENTED_EDGE ( 'NONE', *, *, #21, .F. ) ;
#56 = EDGE_CURVE ( 'NONE', #26, #51, #185, .T. ) ;
#57 = ADVANCED_FACE ( 'NONE', ( #189 ), #234, .T. ) ;
#58 = EDGE_LOOP ( 'NONE', ( #28, #30, #41, #55 ) ) ;
#59 = DIRECTION ( 'NONE',  ( 1.000000000000000000, 0.0000000000000000000, 0.0000000000000000000 ) ) ;
#60 = DIRECTION ( 'NONE',  ( -0.0000000000000000000, -0.0000000000000000000, 1.000000000000000000 ) ) ;
#61 = CARTESIAN_POINT ( 'NONE',  ( 0.0000000000000000000, 0.0000000000000000000, 0.8416735779942569100 ) ) ;
#62 = AXIS2_PLACEMENT_3D ( 'NONE', #61, #60, #59 ) ;
#63 =( NAMED_UNIT ( * ) SI_UNIT ( $, .STERADIAN. ) SOLID_ANGLE_UNIT ( ) );
#64 =( NAMED_UNIT ( * ) PLANE_ANGLE_UNIT ( ) SI_UNIT ( $, .RADIAN. ) );
#65 =( NAMED_UNIT ( * ) PLANE_ANGLE_UNIT ( ) SI_UNIT ( $, .RADIAN. ) );
#66 =( LENGTH_UNIT ( ) NAMED_UNIT ( * ) SI_UNIT ( .MILLI., .METRE. ) );
#67 = SURFACE_STYLE_FILL_AREA ( #68 ) ;
#68 = FILL_AREA_STYLE ('',( #69 ) ) ;
#69 = FILL_AREA_STYLE_COLOUR ( '', #129 ) ;
#70 = DIRECTION ( 'NONE',  ( -0.0000000000000000000, -0.0000000000000000000, 1.000000000000000000 ) ) ;
#71 = FILL_AREA_STYLE_COLOUR ( '', #76 ) ;
#72 = DIRECTION ( 'NONE',  ( 1.000000000000000000, 0.0000000000000000000, 0.0000000000000000000 ) ) ;
#73 = UNCERTAINTY_MEASURE_WITH_UNIT (LENGTH_MEASURE( 1.000000000000000100E-005 ), #66, 'distance_accuracy_value', 'NONE');
#74 =( NAMED_UNIT ( * ) SI_UNIT ( $, .STERADIAN. ) SOLID_ANGLE_UNIT ( ) );
#75 =( GEOMETRIC_REPRESENTATION_CONTEXT ( 3 ) GLOBAL_UNCERTAINTY_ASSIGNED_CONTEXT ( ( #73 ) ) GLOBAL_UNIT_ASSIGNED_CONTEXT ( ( #66, #64, #74 ) ) REPRESENTATION_CONTEXT ( 'NONE', 'WORKASPACE' ) );
#76 = COLOUR_RGB ( '',0.9568627450980391500, 0.9490196078431372100, 0.9607843137254902200 ) ;
#77 = AXIS2_PLACEMENT_3D ( 'NONE', #115, #70, #72 ) ;
#78 = SURFACE_STYLE_USAGE ( .BOTH. , #79 ) ;
#79 = SURFACE_SIDE_STYLE ('',( #92 ) ) ;
#80 = CARTESIAN_POINT ( 'NONE',  ( 0.0000000000000000000, 0.0000000000000000000, -1.154999999999999800 ) ) ;
#81 = AXIS2_PLACEMENT_3D ( 'NONE', #80, #128, #127 ) ;
#82 = UNCERTAINTY_MEASURE_WITH_UNIT (LENGTH_MEASURE( 1.000000000000000100E-005 ), #192, 'distance_accuracy_value', 'NONE');
#83 = DIRECTION ( 'NONE',  ( 0.0000000000000000000, 0.0000000000000000000, -1.000000000000000000 ) ) ;
#84 = DIRECTION ( 'NONE',  ( 1.000000000000000000, 0.0000000000000000000, 0.0000000000000000000 ) ) ;
#85 = CARTESIAN_POINT ( 'NONE',  ( 0.0000000000000000000, 0.0000000000000000000, -256.3850000000000500 ) ) ;
#86 = DIRECTION ( 'NONE',  ( 1.000000000000000000, 0.0000000000000000000, 0.0000000000000000000 ) ) ;
#87 = DIRECTION ( 'NONE',  ( 0.0000000000000000000, -0.0000000000000000000, 1.000000000000000000 ) ) ;
#88 = CARTESIAN_POINT ( 'NONE',  ( 0.0000000000000000000, 4.243401159045579000E-016, -1.155000000000000000 ) ) ;
#89 = MECHANICAL_DESIGN_GEOMETRIC_PRESENTATION_REPRESENTATION (  '', ( #91 ), #75 ) ;
#90 = PRESENTATION_LAYER_ASSIGNMENT (  '', '', ( #91 ) ) ;
#91 = STYLED_ITEM ( 'NONE', ( #103 ), #16 ) ;
#92 = SURFACE_STYLE_FILL_AREA ( #93 ) ;
#93 = FILL_AREA_STYLE ('',( #71 ) ) ;
#94 = LINE ( 'NONE', #124, #100 ) ;
#95 = UNCERTAINTY_MEASURE_WITH_UNIT (LENGTH_MEASURE( 1.000000000000000100E-005 ), #229, 'distance_accuracy_value', 'NONE');
#96 = CIRCLE ( 'NONE', #110, 257.5400000000000200 ) ;
#97 = AXIS2_PLACEMENT_3D ( 'NONE', #88, #87, #86 ) ;
#98 = PLANE ( 'NONE',  #97 ) ;
#99 = DIRECTION ( 'NONE',  ( -0.0000000000000000000, -0.0000000000000000000, 1.000000000000000000 ) ) ;
#100 = VECTOR ( 'NONE', #99, 1000.000000000000000 ) ;
#101 = CARTESIAN_POINT ( 'NONE',  ( 0.0000000000000000000, 12.70000000000016300, 0.8416735779942538000 ) ) ;
#102 = CARTESIAN_POINT ( 'NONE',  ( -1.555250069354439400E-015, -12.70000000000016300, 0.8416735779942538000 ) ) ;
#103 = PRESENTATION_STYLE_ASSIGNMENT (( #104 ) ) ;
#104 = SURFACE_STYLE_USAGE ( .BOTH. , #105 ) ;
#105 = SURFACE_SIDE_STYLE ('',( #67 ) ) ;
#106 = CIRCLE ( 'NONE', #81, 12.69999999999999900 ) ;
#107 = CIRCLE ( 'NONE', #77, 12.69999999999999900 ) ;
#108 = CYLINDRICAL_SURFACE ( 'NONE', #118, 12.69999999999999900 ) ;
#109 = FACE_OUTER_BOUND ( 'NONE', #42, .T. ) ;
#110 = AXIS2_PLACEMENT_3D ( 'NONE', #85, #84, #83 ) ;
#111 = DIRECTION ( 'NONE',  ( 1.000000000000000000, 0.0000000000000000000, 0.0000000000000000000 ) ) ;
#112 = DIRECTION ( 'NONE',  ( -0.0000000000000000000, -0.0000000000000000000, 1.000000000000000000 ) ) ;
#113 = MECHANICAL_DESIGN_GEOMETRIC_PRESENTATION_REPRESENTATION (  '', ( #120 ), #116 ) ;
#114 = PRESENTATION_LAYER_ASSIGNMENT (  '', '', ( #120 ) ) ;
#115 = CARTESIAN_POINT ( 'NONE',  ( 0.0000000000000000000, 0.0000000000000000000, -1.154999999999999800 ) ) ;
#116 =( GEOMETRIC_REPRESENTATION_CONTEXT ( 3 ) GLOBAL_UNCERTAINTY_ASSIGNED_CONTEXT ( ( #122 ) ) GLOBAL_UNIT_ASSIGNED_CONTEXT ( ( #119, #65, #63 ) ) REPRESENTATION_CONTEXT ( 'NONE', 'WORKASPACE' ) );
#117 = CARTESIAN_POINT ( 'NONE',  ( 0.0000000000000000000, 0.0000000000000000000, 4.308132045400366600 ) ) ;
#118 = AXIS2_PLACEMENT_3D ( 'NONE', #117, #112, #111 ) ;
#119 =( LENGTH_UNIT ( ) NAMED_UNIT ( * ) SI_UNIT ( .MILLI., .METRE. ) );
#120 = STYLED_ITEM ( 'NONE', ( #121 ), #6 ) ;
#121 = PRESENTATION_STYLE_ASSIGNMENT (( #78 ) ) ;
#122 = UNCERTAINTY_MEASURE_WITH_UNIT (LENGTH_MEASURE( 1.000000000000000100E-005 ), #119, 'distance_accuracy_value', 'NONE');
#123 = CIRCLE ( 'NONE', #62, 12.69999999999999900 ) ;
#124 = CARTESIAN_POINT ( 'NONE',  ( -12.69999999999999900, 1.555250069354419100E-015, 4.308132045400366600 ) ) ;
#125 = AXIS2_PLACEMENT_3D ( 'NONE', #14, #11, #9 ) ;
#126 = CIRCLE ( 'NONE', #125, 12.69999999999999900 ) ;
#127 = DIRECTION ( 'NONE',  ( 1.000000000000000000, 0.0000000000000000000, 0.0000000000000000000 ) ) ;
#128 = DIRECTION ( 'NONE',  ( -0.0000000000000000000, -0.0000000000000000000, 1.000000000000000000 ) ) ;
#129 = COLOUR_RGB ( '',0.9568627450980391500, 0.9490196078431372100, 0.9607843137254902200 ) ;
#130 = FACE_OUTER_BOUND ( 'NONE', #44, .T. ) ;
#131 = AXIS2_PLACEMENT_3D ( 'NONE', #146, #145, #144 ) ;
#132 = UNCERTAINTY_MEASURE_WITH_UNIT (LENGTH_MEASURE( 1.000000000000000100E-005 ), #172, 'distance_accuracy_value', 'NONE');
#133 = CARTESIAN_POINT ( 'NONE',  ( 0.0000000000000000000, 1.576925601817075500E-014, 1.155000000000017100 ) ) ;
#134 =( NAMED_UNIT ( * ) PLANE_ANGLE_UNIT ( ) SI_UNIT ( $, .RADIAN. ) );
#135 = LINE ( 'NONE', #154, #162 ) ;
#136 = SPHERICAL_SURFACE ( 'NONE', #131, 257.5400000000000200 ) ;
#137 = PRESENTATION_LAYER_ASSIGNMENT (  '', '', ( #138 ) ) ;
#138 = STYLED_ITEM ( 'NONE', ( #170 ), #37 ) ;
#139 = STYLED_ITEM ( 'NONE', ( #140 ), #47 ) ;
#140 = PRESENTATION_STYLE_ASSIGNMENT (( #141 ) ) ;
#141 = SURFACE_STYLE_USAGE ( .BOTH. , #142 ) ;
#142 = SURFACE_SIDE_STYLE ('',( #143 ) ) ;
#143 = SURFACE_STYLE_FILL_AREA ( #165 ) ;
#144 = DIRECTION ( 'NONE',  ( 0.0000000000000000000, 1.000000000000000000, 0.0000000000000000000 ) ) ;
#145 = DIRECTION ( 'NONE',  ( -1.000000000000000000, 0.0000000000000000000, 0.0000000000000000000 ) ) ;
#146 = CARTESIAN_POINT ( 'NONE',  ( 0.0000000000000000000, 0.0000000000000000000, -256.3850000000000500 ) ) ;
#147 = CARTESIAN_POINT ( 'NONE',  ( -12.69999999999999900, 1.555250069354419100E-015, -1.154999999999999800 ) ) ;
#148 = DIRECTION ( 'NONE',  ( -0.0000000000000000000, -0.0000000000000000000, 1.000000000000000000 ) ) ;
#149 = COLOUR_RGB ( '',0.9568627450980391500, 0.9490196078431372100, 0.9607843137254902200 ) ;
#150 = FACE_OUTER_BOUND ( 'NONE', #19, .T. ) ;
#151 =( GEOMETRIC_REPRESENTATION_CONTEXT ( 3 ) GLOBAL_UNCERTAINTY_ASSIGNED_CONTEXT ( ( #132 ) ) GLOBAL_UNIT_ASSIGNED_CONTEXT ( ( #172, #134, #169 ) ) REPRESENTATION_CONTEXT ( 'NONE', 'WORKASPACE' ) );
#152 = SURFACE_SIDE_STYLE ('',( #153 ) ) ;
#153 = SURFACE_STYLE_FILL_AREA ( #163 ) ;
#154 = CARTESIAN_POINT ( 'NONE',  ( 12.69999999999999900, 0.0000000000000000000, 4.308132045400366600 ) ) ;
#155 = DIRECTION ( 'NONE',  ( -0.0000000000000000000, -0.0000000000000000000, 1.000000000000000000 ) ) ;
#156 = CARTESIAN_POINT ( 'NONE',  ( 0.0000000000000000000, 0.0000000000000000000, 0.8416735779942569100 ) ) ;
#157 = AXIS2_PLACEMENT_3D ( 'NONE', #156, #155, #168 ) ;
#158 = CIRCLE ( 'NONE', #157, 12.69999999999999900 ) ;
#159 =( LENGTH_UNIT ( ) NAMED_UNIT ( * ) SI_UNIT ( .MILLI., .METRE. ) );
#160 = MECHANICAL_DESIGN_GEOMETRIC_PRESENTATION_REPRESENTATION (  '', ( #139 ), #13 ) ;
#161 = PRESENTATION_LAYER_ASSIGNMENT (  '', '', ( #139 ) ) ;
#162 = VECTOR ( 'NONE', #148, 1000.000000000000000 ) ;
#163 = FILL_AREA_STYLE ('',( #164 ) ) ;
#164 = FILL_AREA_STYLE_COLOUR ( '', #149 ) ;
#165 = FILL_AREA_STYLE ('',( #166 ) ) ;
#166 = FILL_AREA_STYLE_COLOUR ( '', #167 ) ;
#167 = COLOUR_RGB ( '',0.7960784313725489700, 0.8235294117647058400, 0.9372549019607843100 ) ;
#168 = DIRECTION ( 'NONE',  ( 1.000000000000000000, 0.0000000000000000000, 0.0000000000000000000 ) ) ;
#169 =( NAMED_UNIT ( * ) SI_UNIT ( $, .STERADIAN. ) SOLID_ANGLE_UNIT ( ) );
#170 = PRESENTATION_STYLE_ASSIGNMENT (( #171 ) ) ;
#171 = SURFACE_STYLE_USAGE ( .BOTH. , #152 ) ;
#172 =( LENGTH_UNIT ( ) NAMED_UNIT ( * ) SI_UNIT ( .MILLI., .METRE. ) );
#173 = MECHANICAL_DESIGN_GEOMETRIC_PRESENTATION_REPRESENTATION (  '', ( #138 ), #151 ) ;
#174 = CARTESIAN_POINT ( 'NONE',  ( 12.69999999999999900, 0.0000000000000000000, 0.8416735779942569100 ) ) ;
#175 = CARTESIAN_POINT ( 'NONE',  ( -12.69999999999999900, 1.555250069354419100E-015, 0.8416735779942569100 ) ) ;
#176 = CARTESIAN_POINT ( 'NONE',  ( 12.69999999999999900, 0.0000000000000000000, -1.154999999999999800 ) ) ;
#177 = STYLED_ITEM ( 'NONE', ( #178 ), #57 ) ;
#178 = PRESENTATION_STYLE_ASSIGNMENT (( #179 ) ) ;
#179 = SURFACE_STYLE_USAGE ( .BOTH. , #180 ) ;
#180 = SURFACE_SIDE_STYLE ('',( #181 ) ) ;
#181 = SURFACE_STYLE_FILL_AREA ( #182 ) ;
#182 = FILL_AREA_STYLE ('',( #186 ) ) ;
#183 = FILL_AREA_STYLE_COLOUR ( '', #208 ) ;
#184 = AXIS2_PLACEMENT_3D ( 'NONE', #199, #191, #190 ) ;
#185 = CIRCLE ( 'NONE', #184, 12.69999999999999900 ) ;
#186 = FILL_AREA_STYLE_COLOUR ( '', #188 ) ;
#187 =( LENGTH_UNIT ( ) NAMED_UNIT ( * ) SI_UNIT ( .MILLI., .METRE. ) );
#188 = COLOUR_RGB ( '',0.9568627450980391500, 0.9490196078431372100, 0.9607843137254902200 ) ;
#189 = FACE_OUTER_BOUND ( 'NONE', #58, .T. ) ;
#190 = DIRECTION ( 'NONE',  ( 1.000000000000000000, 0.0000000000000000000, 0.0000000000000000000 ) ) ;
#191 = DIRECTION ( 'NONE',  ( -0.0000000000000000000, -0.0000000000000000000, 1.000000000000000000 ) ) ;
#192 =( LENGTH_UNIT ( ) NAMED_UNIT ( * ) SI_UNIT ( .MILLI., .METRE. ) );
#193 = MECHANICAL_DESIGN_GEOMETRIC_PRESENTATION_REPRESENTATION (  '', ( #177 ), #236 ) ;
#194 = PRESENTATION_LAYER_ASSIGNMENT (  '', '', ( #177 ) ) ;
#195 = CARTESIAN_POINT ( 'NONE',  ( 0.0000000000000000000, 0.0000000000000000000, -256.3850000000000500 ) ) ;
#196 = FACE_OUTER_BOUND ( 'NONE', #18, .T. ) ;
#197 = STYLED_ITEM ( 'NONE', ( #198 ), #54 ) ;
#198 = PRESENTATION_STYLE_ASSIGNMENT (( #210 ) ) ;
#199 = CARTESIAN_POINT ( 'NONE',  ( 0.0000000000000000000, 0.0000000000000000000, 0.8416735779942569100 ) ) ;
#200 = DIRECTION ( 'NONE',  ( 1.000000000000000000, 0.0000000000000000000, 0.0000000000000000000 ) ) ;
#201 = DIRECTION ( 'NONE',  ( -0.0000000000000000000, -0.0000000000000000000, 1.000000000000000000 ) ) ;
#202 = CARTESIAN_POINT ( 'NONE',  ( 0.0000000000000000000, 0.0000000000000000000, 4.308132045400366600 ) ) ;
#203 = UNCERTAINTY_MEASURE_WITH_UNIT (LENGTH_MEASURE( 1.000000000000000100E-005 ), #187, 'distance_accuracy_value', 'NONE');
#204 = MECHANICAL_DESIGN_GEOMETRIC_PRESENTATION_REPRESENTATION (  '', ( #197 ), #219 ) ;
#205 = PRESENTATION_LAYER_ASSIGNMENT (  '', '', ( #197 ) ) ;
#206 = AXIS2_PLACEMENT_3D ( 'NONE', #195, #213, #220 ) ;
#207 = FILL_AREA_STYLE ('',( #183 ) ) ;
#208 = COLOUR_RGB ( '',0.9568627450980391500, 0.9490196078431372100, 0.9607843137254902200 ) ;
#209 = CIRCLE ( 'NONE', #206, 257.5400000000000200 ) ;
#210 = SURFACE_STYLE_USAGE ( .BOTH. , #211 ) ;
#211 = SURFACE_SIDE_STYLE ('',( #212 ) ) ;
#212 = SURFACE_STYLE_FILL_AREA ( #207 ) ;
#213 = DIRECTION ( 'NONE',  ( -1.000000000000000000, 1.224606353822377300E-016, 0.0000000000000000000 ) ) ;
#214 = CYLINDRICAL_SURFACE ( 'NONE', #215, 12.69999999999999900 ) ;
#215 = AXIS2_PLACEMENT_3D ( 'NONE', #202, #201, #200 ) ;
#216 =( NAMED_UNIT ( * ) SI_UNIT ( $, .STERADIAN. ) SOLID_ANGLE_UNIT ( ) );
#217 =( NAMED_UNIT ( * ) PLANE_ANGLE_UNIT ( ) SI_UNIT ( $, .RADIAN. ) );
#218 =( NAMED_UNIT ( * ) PLANE_ANGLE_UNIT ( ) SI_UNIT ( $, .RADIAN. ) );
#219 =( GEOMETRIC_REPRESENTATION_CONTEXT ( 3 ) GLOBAL_UNCERTAINTY_ASSIGNED_CONTEXT ( ( #203 ) ) GLOBAL_UNIT_ASSIGNED_CONTEXT ( ( #187, #217, #216 ) ) REPRESENTATION_CONTEXT ( 'NONE', 'WORKASPACE' ) );
#220 = DIRECTION ( 'NONE',  ( -1.224606353822377300E-016, -1.000000000000000000, 0.0000000000000000000 ) ) ;
#221 =( LENGTH_UNIT ( ) NAMED_UNIT ( * ) SI_UNIT ( .MILLI., .METRE. ) );
#222 =( NAMED_UNIT ( * ) PLANE_ANGLE_UNIT ( ) SI_UNIT ( $, .RADIAN. ) );
#223 = MECHANICAL_DESIGN_GEOMETRIC_PRESENTATION_REPRESENTATION (  '', ( #225 ), #249 ) ;
#224 = PRESENTATION_LAYER_ASSIGNMENT (  '', '', ( #225 ) ) ;
#225 = STYLED_ITEM ( 'NONE', ( #226 ), #233 ) ;
#226 = PRESENTATION_STYLE_ASSIGNMENT (( #238 ) ) ;
#227 = UNCERTAINTY_MEASURE_WITH_UNIT (LENGTH_MEASURE( 1.000000000000000100E-005 ), #221, 'distance_accuracy_value', 'NONE');
#228 =( NAMED_UNIT ( * ) PLANE_ANGLE_UNIT ( ) SI_UNIT ( $, .RADIAN. ) );
#229 =( LENGTH_UNIT ( ) NAMED_UNIT ( * ) SI_UNIT ( .MILLI., .METRE. ) );
#230 = DIRECTION ( 'NONE',  ( -1.000000000000000000, 0.0000000000000000000, 0.0000000000000000000 ) ) ;
#231 = CARTESIAN_POINT ( 'NONE',  ( 0.0000000000000000000, 0.0000000000000000000, -256.3850000000000500 ) ) ;
#232 = AXIS2_PLACEMENT_3D ( 'NONE', #231, #230, #244 ) ;
#233 = ADVANCED_BREP_SHAPE_REPRESENTATION ( '4444-E0W', ( #47, #248 ), #235 ) ;
#234 = SPHERICAL_SURFACE ( 'NONE', #232, 257.5400000000000200 ) ;
#235 =( GEOMETRIC_REPRESENTATION_CONTEXT ( 3 ) GLOBAL_UNCERTAINTY_ASSIGNED_CONTEXT ( ( #227 ) ) GLOBAL_UNIT_ASSIGNED_CONTEXT ( ( #221, #222, #237 ) ) REPRESENTATION_CONTEXT ( 'NONE', 'WORKASPACE' ) );
#236 =( GEOMETRIC_REPRESENTATION_CONTEXT ( 3 ) GLOBAL_UNCERTAINTY_ASSIGNED_CONTEXT ( ( #82 ) ) GLOBAL_UNIT_ASSIGNED_CONTEXT ( ( #192, #218, #10 ) ) REPRESENTATION_CONTEXT ( 'NONE', 'WORKASPACE' ) );
#237 =( NAMED_UNIT ( * ) SI_UNIT ( $, .STERADIAN. ) SOLID_ANGLE_UNIT ( ) );
#238 = SURFACE_STYLE_USAGE ( .BOTH. , #239 ) ;
#239 = SURFACE_SIDE_STYLE ('',( #240 ) ) ;
#240 = SURFACE_STYLE_FILL_AREA ( #241 ) ;
#241 = FILL_AREA_STYLE ('',( #242 ) ) ;
#242 = FILL_AREA_STYLE_COLOUR ( '', #243 ) ;
#243 = COLOUR_RGB ( '',0.7960784313725489700, 0.8235294117647058400, 0.9372549019607843100 ) ;
#244 = DIRECTION ( 'NONE',  ( 0.0000000000000000000, 1.000000000000000000, 0.0000000000000000000 ) ) ;
#245 = DIRECTION ( 'NONE',  ( 1.000000000000000000, 0.0000000000000000000, 0.0000000000000000000 ) ) ;
#246 = DIRECTION ( 'NONE',  ( 0.0000000000000000000, 0.0000000000000000000, 1.000000000000000000 ) ) ;
#247 = CARTESIAN_POINT ( 'NONE',  ( 0.0000000000000000000, 0.0000000000000000000, 0.0000000000000000000 ) ) ;
#248 = AXIS2_PLACEMENT_3D ( 'NONE', #247, #246, #245 ) ;
#249 =( GEOMETRIC_REPRESENTATION_CONTEXT ( 3 ) GLOBAL_UNCERTAINTY_ASSIGNED_CONTEXT ( ( #95 ) ) GLOBAL_UNIT_ASSIGNED_CONTEXT ( ( #229, #228, #29 ) ) REPRESENTATION_CONTEXT ( 'NONE', 'WORKASPACE' ) );
#250 = PRODUCT_DEFINITION_CONTEXT ( 'detailed design', #252, 'design' ) ;
#251 = APPLICATION_PROTOCOL_DEFINITION ( 'draft international standard', 'automotive_design', 1998, #252 ) ;
#252 = APPLICATION_CONTEXT ( 'automotive_design' ) ;
#253 = APPLICATION_PROTOCOL_DEFINITION ( 'draft international standard', 'automotive_design', 1998, #254 ) ;
#254 = APPLICATION_CONTEXT ( 'automotive_design' ) ;
#255 = PRODUCT ( '4444-E0W', '4444-E0W', '', ( #256 ) ) ;
#256 = PRODUCT_CONTEXT ( 'NONE', #254, 'mechanical' ) ;
#257 = PRODUCT_DEFINITION_SHAPE ( 'NONE', 'NONE',  #258 ) ;
#258 = PRODUCT_DEFINITION ( 'UNKNOWN', '', #260, #250 ) ;
#259 = PRODUCT_RELATED_PRODUCT_CATEGORY ( 'part', '', ( #255 ) ) ;
#260 = PRODUCT_DEFINITION_FORMATION_WITH_SPECIFIED_SOURCE ( 'ANY', '', #255, .NOT_KNOWN. ) ;
#261 = SHAPE_DEFINITION_REPRESENTATION ( #257, #233 ) ;
ENDSEC;
END-ISO-10303-21;
