ISO-10303-21;
HEADER;
FILE_DESCRIPTION (( 'STEP AP203' ),
    '1' );
FILE_NAME ('TTN162803-E0W.STEP',
    '2019-10-24T14:17:45',
    ( '' ),
    ( '' ),
    'SwSTEP 2.0',
    'SolidWorks 2018',
    '' );
FILE_SCHEMA (( 'CONFIG_CONTROL_DESIGN' ));
ENDSEC;

DATA;
#1 = ORIENTED_EDGE ( 'NONE', *, *, #86, .T. ) ;
#2 = ORIENTED_EDGE ( 'NONE', *, *, #230, .T. ) ;
#3 = COORDINATED_UNIVERSAL_TIME_OFFSET ( 5, 0, .BEHIND. ) ;
#4 = EDGE_LOOP ( 'NONE', ( #192, #240, #1, #2 ) ) ;
#5 = DIRECTION ( 'NONE',  ( 0.7071067811865444641, 0.0000000000000000000, 0.7071067811865505703 ) ) ;
#6 = CARTESIAN_POINT ( 'NONE',  ( 2.069295080648162255, 0.9682115856179515090, 0.9661531369885324461 ) ) ;
#7 = DIRECTION ( 'NONE',  ( 0.0000000000000000000, 0.0000000000000000000, -1.000000000000000000 ) ) ;
#8 = CALENDAR_DATE ( 2019, 24, 10 ) ;
#9 = APPLICATION_PROTOCOL_DEFINITION ( 'international standard', 'config_control_design', 1994, #16 ) ;
#10 = EDGE_CURVE ( 'NONE', #204, #79, #162, .T. ) ;
#11 = DIRECTION ( 'NONE',  ( -1.000000000000000000, 0.0000000000000000000, 0.0000000000000000000 ) ) ;
#12 = SPHERICAL_SURFACE ( 'NONE', #163, 1.834000000000000075 ) ;
#13 = PERSON_AND_ORGANIZATION_ROLE ( 'creator' ) ;
#14 = FACE_OUTER_BOUND ( 'NONE', #62, .T. ) ;
#15 = EDGE_LOOP ( 'NONE', ( #185, #91, #313, #112, #21 ) ) ;
#16 = APPLICATION_CONTEXT ( 'configuration controlled 3d designs of mechanical parts and assemblies' ) ;
#17 = SPHERICAL_SURFACE ( 'NONE', #280, 1.834000000000000075 ) ;
#18 = CIRCLE ( 'NONE', #98, 0.9500000000000000666 ) ;
#19 = EDGE_CURVE ( 'NONE', #79, #165, #78, .T. ) ;
#20 = ADVANCED_FACE ( 'NONE', ( #14 ), #100, .T. ) ;
#21 = ORIENTED_EDGE ( 'NONE', *, *, #248, .F. ) ;
#22 = VERTEX_POINT ( 'NONE', #292 ) ;
#23 = PERSON_AND_ORGANIZATION ( #116, #150 ) ;
#24 = CIRCLE ( 'NONE', #115, 0.9500000000000000666 ) ;
#25 = ORIENTED_EDGE ( 'NONE', *, *, #53, .T. ) ;
#26 = CARTESIAN_POINT ( 'NONE',  ( 1.069295080648162477, 0.9682115856179515090, 1.600928455509320170 ) ) ;
#27 = APPROVAL ( #241, 'UNSPECIFIED' ) ;
#28 = CONICAL_SURFACE ( 'NONE', #135, 0.9999999999999997780, 0.7853981633974439491 ) ;
#29 = COORDINATED_UNIVERSAL_TIME_OFFSET ( 5, 0, .BEHIND. ) ;
#30 = DIRECTION ( 'NONE',  ( -1.000000000000000000, 0.0000000000000000000, 0.0000000000000000000 ) ) ;
#31 = DIRECTION ( 'NONE',  ( -0.0000000000000000000, -0.0000000000000000000, 1.000000000000000000 ) ) ;
#32 = DIRECTION ( 'NONE',  ( 1.000000000000000000, 0.0000000000000000000, 0.0000000000000000000 ) ) ;
#33 = DIRECTION ( 'NONE',  ( 1.000000000000000000, 0.0000000000000000000, 0.0000000000000000000 ) ) ;
#34 = LINE ( 'NONE', #183, #301 ) ;
#35 = DIRECTION ( 'NONE',  ( 1.000000000000000000, 0.0000000000000000000, 0.0000000000000000000 ) ) ;
#36 = DATE_TIME_ROLE ( 'creation_date' ) ;
#37 = CARTESIAN_POINT ( 'NONE',  ( 0.06929508064816244928, 0.9682115856179516200, 0.9661531369885324461 ) ) ;
#38 = APPROVAL_ROLE ( '' ) ;
#39 = LINE ( 'NONE', #208, #224 ) ;
#40 = PERSON_AND_ORGANIZATION_ROLE ( 'design_owner' ) ;
#41 = EDGE_CURVE ( 'NONE', #165, #79, #42, .T. ) ;
#42 = CIRCLE ( 'NONE', #49, 0.9999999999999997780 ) ;
#43 = DATE_AND_TIME ( #149, #207 ) ;
#44 = AXIS2_PLACEMENT_3D ( 'NONE', #151, #306, #118 ) ;
#45 = DIRECTION ( 'NONE',  ( 1.000000000000000000, 0.0000000000000000000, 0.0000000000000000000 ) ) ;
#46 = CONICAL_SURFACE ( 'NONE', #106, 1.000000000000000000, 0.7853981633974461696 ) ;
#47 = DATE_AND_TIME ( #166, #270 ) ;
#48 = CARTESIAN_POINT ( 'NONE',  ( 0.1192950806481621467, 0.9682115856179515090, 1.650928455509320214 ) ) ;
#49 = AXIS2_PLACEMENT_3D ( 'NONE', #101, #190, #252 ) ;
#50 = CARTESIAN_POINT ( 'NONE',  ( 1.069295080648162255, 0.01821158561795134176, 1.650928455509320214 ) ) ;
#51 = CARTESIAN_POINT ( 'NONE',  ( 1.069295080648162477, 0.9682115856179515090, 0.9661531369885324461 ) ) ;
#52 =( LENGTH_UNIT ( ) NAMED_UNIT ( * ) SI_UNIT ( .MILLI., .METRE. ) );
#53 = EDGE_CURVE ( 'NONE', #56, #125, #303, .T. ) ;
#54 = DIRECTION ( 'NONE',  ( 0.0000000000000000000, 0.0000000000000000000, -1.000000000000000000 ) ) ;
#55 = ORIENTED_EDGE ( 'NONE', *, *, #147, .F. ) ;
#56 = VERTEX_POINT ( 'NONE', #37 ) ;
#57 = ORIENTED_EDGE ( 'NONE', *, *, #19, .F. ) ;
#58 = DIRECTION ( 'NONE',  ( 1.000000000000000000, 0.0000000000000000000, 0.0000000000000000000 ) ) ;
#59 = AXIS2_PLACEMENT_3D ( 'NONE', #51, #146, #71 ) ;
#60 = ORIENTED_EDGE ( 'NONE', *, *, #129, .T. ) ;
#61 = LOCAL_TIME ( 10, 17, 45.00000000000000000, #122 ) ;
#62 = EDGE_LOOP ( 'NONE', ( #273, #25, #243, #57 ) ) ;
#63 = PRODUCT ( 'TTN162803-E0W', 'TTN162803-E0W', '', ( #308 ) ) ;
#64 = LOCAL_TIME ( 10, 17, 45.00000000000000000, #3 ) ;
#65 = EDGE_CURVE ( 'NONE', #22, #67, #18, .T. ) ;
#66 = DIRECTION ( 'NONE',  ( 1.000000000000000000, 0.0000000000000000000, 0.0000000000000000000 ) ) ;
#67 = VERTEX_POINT ( 'NONE', #262 ) ;
#68 = CIRCLE ( 'NONE', #157, 1.834000000000000075 ) ;
#69 = ORIENTED_EDGE ( 'NONE', *, *, #275, .F. ) ;
#70 = ORIENTED_EDGE ( 'NONE', *, *, #230, .F. ) ;
#71 = DIRECTION ( 'NONE',  ( 1.000000000000000000, 0.0000000000000000000, 0.0000000000000000000 ) ) ;
#72 = PRODUCT_DEFINITION_SHAPE ( 'NONE', 'NONE',  #309 ) ;
#73 = CARTESIAN_POINT ( 'NONE',  ( 1.069295080648162477, 0.9682115856179515090, 0.9161531369885322906 ) ) ;
#74 = DIRECTION ( 'NONE',  ( -1.182336065960200969E-16, -1.000000000000000000, 0.0000000000000000000 ) ) ;
#75 = DIRECTION ( 'NONE',  ( 1.000000000000000000, 0.0000000000000000000, 0.0000000000000000000 ) ) ;
#76 = CARTESIAN_POINT ( 'NONE',  ( 0.06929508064816244928, 0.9682115856179515090, 1.600928455509320170 ) ) ;
#77 = CARTESIAN_POINT ( 'NONE',  ( 1.069295080648162477, 0.9682115856179515090, 1.916153136988532291 ) ) ;
#78 = CIRCLE ( 'NONE', #302, 0.9999999999999997780 ) ;
#79 = VERTEX_POINT ( 'NONE', #205 ) ;
#80 = DIRECTION ( 'NONE',  ( -0.0000000000000000000, -0.0000000000000000000, 1.000000000000000000 ) ) ;
#81 = SECURITY_CLASSIFICATION ( '', '', #246 ) ;
#82 = APPROVAL_STATUS ( 'not_yet_approved' ) ;
#83 = ORIENTED_EDGE ( 'NONE', *, *, #191, .T. ) ;
#84 = VERTEX_POINT ( 'NONE', #50 ) ;
#85 = CLOSED_SHELL ( 'NONE', ( #225, #109, #196, #300, #318, #20, #139, #250, #111 ) ) ;
#86 = EDGE_CURVE ( 'NONE', #148, #188, #235, .T. ) ;
#87 = ORIENTED_EDGE ( 'NONE', *, *, #65, .T. ) ;
#88 = FACE_OUTER_BOUND ( 'NONE', #120, .T. ) ;
#89 = AXIS2_PLACEMENT_3D ( 'NONE', #260, #233, #74 ) ;
#90 = CALENDAR_DATE ( 2019, 24, 10 ) ;
#91 = ORIENTED_EDGE ( 'NONE', *, *, #247, .T. ) ;
#92 = CC_DESIGN_APPROVAL ( #27, ( #81 ) ) ;
#93 = CARTESIAN_POINT ( 'NONE',  ( 2.019295080648162433, 0.9682115856179516200, 1.650928455509320214 ) ) ;
#94 = EDGE_LOOP ( 'NONE', ( #87, #291 ) ) ;
#95 = CARTESIAN_POINT ( 'NONE',  ( 2.069295080648162255, 0.9682115856179515090, 0.9661531369885324461 ) ) ;
#96 = PERSON_AND_ORGANIZATION ( #116, #150 ) ;
#97 = CARTESIAN_POINT ( 'NONE',  ( 1.069295080648162477, 0.9682115856179515090, 1.650928455509320214 ) ) ;
#98 = AXIS2_PLACEMENT_3D ( 'NONE', #289, #213, #45 ) ;
#99 = DIRECTION ( 'NONE',  ( -0.0000000000000000000, -0.0000000000000000000, 1.000000000000000000 ) ) ;
#100 = CYLINDRICAL_SURFACE ( 'NONE', #177, 0.9999999999999997780 ) ;
#101 = CARTESIAN_POINT ( 'NONE',  ( 1.069295080648162477, 0.9682115856179515090, 1.600928455509320170 ) ) ;
#102 = PERSON_AND_ORGANIZATION ( #116, #150 ) ;
#103 = ORIENTED_EDGE ( 'NONE', *, *, #129, .F. ) ;
#104 = DIRECTION ( 'NONE',  ( 1.000000000000000000, 0.0000000000000000000, 0.0000000000000000000 ) ) ;
#105 = CC_DESIGN_DATE_AND_TIME_ASSIGNMENT ( #47, #212, ( #81 ) ) ;
#106 = AXIS2_PLACEMENT_3D ( 'NONE', #26, #7, #30 ) ;
#107 = APPROVAL_DATE_TIME ( #178, #321 ) ;
#108 = MANIFOLD_SOLID_BREP ( 'TTN162772-1-solid1', #85 ) ;
#109 = ADVANCED_FACE ( 'NONE', ( #88 ), #17, .T. ) ;
#110 = CC_DESIGN_SECURITY_CLASSIFICATION ( #81, ( #293 ) ) ;
#111 = ADVANCED_FACE ( 'NONE', ( #217 ), #266, .T. ) ;
#112 = ORIENTED_EDGE ( 'NONE', *, *, #10, .F. ) ;
#113 = PERSON_AND_ORGANIZATION ( #116, #150 ) ;
#114 = CARTESIAN_POINT ( 'NONE',  ( 1.069295080648162477, 0.9682115856179515090, 0.9661531369885324461 ) ) ;
#115 = AXIS2_PLACEMENT_3D ( 'NONE', #234, #121, #173 ) ;
#116 = PERSON ( 'UNSPECIFIED', 'UNSPECIFIED', 'UNSPECIFIED', ('UNSPECIFIED'), ('UNSPECIFIED'), ('UNSPECIFIED') ) ;
#117 = ORIENTED_EDGE ( 'NONE', *, *, #253, .T. ) ;
#118 = DIRECTION ( 'NONE',  ( 1.000000000000000000, 0.0000000000000000000, 0.0000000000000000000 ) ) ;
#119 = DIRECTION ( 'NONE',  ( 1.000000000000000000, 0.0000000000000000000, 0.0000000000000000000 ) ) ;
#120 = EDGE_LOOP ( 'NONE', ( #60, #320, #70, #197 ) ) ;
#121 = DIRECTION ( 'NONE',  ( -0.0000000000000000000, -0.0000000000000000000, 1.000000000000000000 ) ) ;
#122 = COORDINATED_UNIVERSAL_TIME_OFFSET ( 5, 0, .BEHIND. ) ;
#123 = AXIS2_PLACEMENT_3D ( 'NONE', #73, #176, #119 ) ;
#124 = PLANE ( 'NONE',  #239 ) ;
#125 = VERTEX_POINT ( 'NONE', #6 ) ;
#126 = CIRCLE ( 'NONE', #89, 1.834000000000000075 ) ;
#127 = DIRECTION ( 'NONE',  ( -0.0000000000000000000, -0.0000000000000000000, 1.000000000000000000 ) ) ;
#128 = DIRECTION ( 'NONE',  ( 0.0000000000000000000, -0.0000000000000000000, 1.000000000000000000 ) ) ;
#129 = EDGE_CURVE ( 'NONE', #204, #84, #24, .T. ) ;
#130 = DIRECTION ( 'NONE',  ( -0.0000000000000000000, -0.0000000000000000000, 1.000000000000000000 ) ) ;
#131 = PERSON_AND_ORGANIZATION ( #116, #150 ) ;
#132 = CC_DESIGN_PERSON_AND_ORGANIZATION_ASSIGNMENT ( #131, #13, ( #309 ) ) ;
#133 = UNCERTAINTY_MEASURE_WITH_UNIT (LENGTH_MEASURE( 1.000000000000000082E-05 ), #52, 'distance_accuracy_value', 'NONE');
#134 = APPROVAL_ROLE ( '' ) ;
#135 = AXIS2_PLACEMENT_3D ( 'NONE', #283, #152, #145 ) ;
#136 = CONICAL_SURFACE ( 'NONE', #319, 1.000000000000000000, 0.7853981633974461696 ) ;
#137 = LINE ( 'NONE', #95, #287 ) ;
#138 = ORIENTED_EDGE ( 'NONE', *, *, #65, .F. ) ;
#139 = ADVANCED_FACE ( 'NONE', ( #195 ), #136, .T. ) ;
#140 = CC_DESIGN_DATE_AND_TIME_ASSIGNMENT ( #271, #36, ( #309 ) ) ;
#141 = ORIENTED_EDGE ( 'NONE', *, *, #277, .F. ) ;
#142 = AXIS2_PLACEMENT_3D ( 'NONE', #97, #130, #35 ) ;
#143 = CIRCLE ( 'NONE', #199, 0.9500000000000000666 ) ;
#144 = APPROVAL_DATE_TIME ( #43, #27 ) ;
#145 = DIRECTION ( 'NONE',  ( 1.000000000000000000, 0.0000000000000000000, 0.0000000000000000000 ) ) ;
#146 = DIRECTION ( 'NONE',  ( -0.0000000000000000000, -0.0000000000000000000, 1.000000000000000000 ) ) ;
#147 = EDGE_CURVE ( 'NONE', #67, #56, #317, .T. ) ;
#148 = VERTEX_POINT ( 'NONE', #93 ) ;
#149 = CALENDAR_DATE ( 2019, 24, 10 ) ;
#150 = ORGANIZATION ( 'UNSPECIFIED', 'UNSPECIFIED', '' ) ;
#151 = CARTESIAN_POINT ( 'NONE',  ( 1.069295080648162477, 0.9682115856179515090, 1.650928455509320214 ) ) ;
#152 = DIRECTION ( 'NONE',  ( -0.0000000000000000000, -0.0000000000000000000, 1.000000000000000000 ) ) ;
#153 = CC_DESIGN_APPROVAL ( #321, ( #309 ) ) ;
#154 = CARTESIAN_POINT ( 'NONE',  ( 1.069295080648162477, 0.9682115856179515090, 0.08215313698853224378 ) ) ;
#155 = CIRCLE ( 'NONE', #299, 0.9999999999999997780 ) ;
#156 = CARTESIAN_POINT ( 'NONE',  ( 1.069295080648162477, 0.9682115856179515090, 0.08215313698853224378 ) ) ;
#157 = AXIS2_PLACEMENT_3D ( 'NONE', #211, #75, #54 ) ;
#158 = EDGE_LOOP ( 'NONE', ( #215, #117, #172, #69 ) ) ;
#159 = APPROVAL_STATUS ( 'not_yet_approved' ) ;
#160 = APPLICATION_PROTOCOL_DEFINITION ( 'international standard', 'config_control_design', 1994, #296 ) ;
#161 = DIRECTION ( 'NONE',  ( 1.000000000000000000, 0.0000000000000000000, 0.0000000000000000000 ) ) ;
#162 = LINE ( 'NONE', #76, #221 ) ;
#163 = AXIS2_PLACEMENT_3D ( 'NONE', #156, #11, #286 ) ;
#164 = PERSON_AND_ORGANIZATION ( #116, #150 ) ;
#165 = VERTEX_POINT ( 'NONE', #279 ) ;
#166 = CALENDAR_DATE ( 2019, 24, 10 ) ;
#167 = EDGE_CURVE ( 'NONE', #84, #169, #126, .T. ) ;
#168 = CC_DESIGN_PERSON_AND_ORGANIZATION_ASSIGNMENT ( #102, #245, ( #293 ) ) ;
#169 = VERTEX_POINT ( 'NONE', #259 ) ;
#170 =( GEOMETRIC_REPRESENTATION_CONTEXT ( 3 ) GLOBAL_UNCERTAINTY_ASSIGNED_CONTEXT ( ( #133 ) ) GLOBAL_UNIT_ASSIGNED_CONTEXT ( ( #52, #290, #269 ) ) REPRESENTATION_CONTEXT ( 'NONE', 'WORKASPACE' ) );
#171 = CARTESIAN_POINT ( 'NONE',  ( 1.069295080648162477, 1.918211585617951576, 1.650928455509320214 ) ) ;
#172 = ORIENTED_EDGE ( 'NONE', *, *, #41, .F. ) ;
#173 = DIRECTION ( 'NONE',  ( 1.000000000000000000, 0.0000000000000000000, 0.0000000000000000000 ) ) ;
#174 = CALENDAR_DATE ( 2019, 24, 10 ) ;
#175 = ORIENTED_EDGE ( 'NONE', *, *, #10, .T. ) ;
#176 = DIRECTION ( 'NONE',  ( 0.0000000000000000000, 0.0000000000000000000, -1.000000000000000000 ) ) ;
#177 = AXIS2_PLACEMENT_3D ( 'NONE', #181, #264, #33 ) ;
#178 = DATE_AND_TIME ( #174, #64 ) ;
#179 = PERSON_AND_ORGANIZATION_ROLE ( 'classification_officer' ) ;
#180 = ORIENTED_EDGE ( 'NONE', *, *, #210, .F. ) ;
#181 = CARTESIAN_POINT ( 'NONE',  ( 1.069295080648162477, 0.9682115856179515090, 1.916153136988532291 ) ) ;
#182 = DIRECTION ( 'NONE',  ( 1.000000000000000000, 0.0000000000000000000, 0.0000000000000000000 ) ) ;
#183 = CARTESIAN_POINT ( 'NONE',  ( 0.06929508064816244928, 0.9682115856179516200, 1.916153136988532291 ) ) ;
#184 = DIRECTION ( 'NONE',  ( -0.7071067811865460184, 0.0000000000000000000, -0.7071067811865489050 ) ) ;
#185 = ORIENTED_EDGE ( 'NONE', *, *, #86, .F. ) ;
#186 = PERSON_AND_ORGANIZATION ( #116, #150 ) ;
#187 = PRODUCT_RELATED_PRODUCT_CATEGORY ( 'detail', '', ( #63 ) ) ;
#188 = VERTEX_POINT ( 'NONE', #171 ) ;
#189 = ORIENTED_EDGE ( 'NONE', *, *, #19, .T. ) ;
#190 = DIRECTION ( 'NONE',  ( -0.0000000000000000000, -0.0000000000000000000, 1.000000000000000000 ) ) ;
#191 = EDGE_CURVE ( 'NONE', #22, #125, #137, .T. ) ;
#192 = ORIENTED_EDGE ( 'NONE', *, *, #167, .F. ) ;
#193 = CC_DESIGN_PERSON_AND_ORGANIZATION_ASSIGNMENT ( #113, #179, ( #81 ) ) ;
#194 = DIRECTION ( 'NONE',  ( -0.0000000000000000000, -0.0000000000000000000, 1.000000000000000000 ) ) ;
#195 = FACE_OUTER_BOUND ( 'NONE', #228, .T. ) ;
#196 = ADVANCED_FACE ( 'NONE', ( #281 ), #46, .T. ) ;
#197 = ORIENTED_EDGE ( 'NONE', *, *, #248, .T. ) ;
#198 = APPROVAL_PERSON_ORGANIZATION ( #164, #307, #218 ) ;
#199 = AXIS2_PLACEMENT_3D ( 'NONE', #267, #99, #161 ) ;
#200 = ORIENTED_EDGE ( 'NONE', *, *, #191, .F. ) ;
#201 = FACE_OUTER_BOUND ( 'NONE', #94, .T. ) ;
#202 = EDGE_LOOP ( 'NONE', ( #55, #138, #83, #251 ) ) ;
#203 = DIRECTION ( 'NONE',  ( 0.7071067811865460184, 8.659560562354913137E-17, -0.7071067811865489050 ) ) ;
#204 = VERTEX_POINT ( 'NONE', #48 ) ;
#205 = CARTESIAN_POINT ( 'NONE',  ( 0.06929508064816244928, 0.9682115856179516200, 1.600928455509320170 ) ) ;
#206 = DIRECTION ( 'NONE',  ( 0.0000000000000000000, 1.000000000000000000, 0.0000000000000000000 ) ) ;
#207 = LOCAL_TIME ( 10, 17, 45.00000000000000000, #29 ) ;
#208 = CARTESIAN_POINT ( 'NONE',  ( 2.069295080648162255, 0.9682115856179516200, 1.600928455509320170 ) ) ;
#209 = APPROVAL_PERSON_ORGANIZATION ( #23, #321, #38 ) ;
#210 = EDGE_CURVE ( 'NONE', #67, #22, #274, .T. ) ;
#211 = CARTESIAN_POINT ( 'NONE',  ( 1.069295080648162477, 0.9682115856179515090, 0.08215313698853224378 ) ) ;
#212 = DATE_TIME_ROLE ( 'classification_date' ) ;
#213 = DIRECTION ( 'NONE',  ( 0.0000000000000000000, 0.0000000000000000000, -1.000000000000000000 ) ) ;
#214 = ADVANCED_BREP_SHAPE_REPRESENTATION ( 'TTN162803-E0W', ( #108, #285 ), #170 ) ;
#215 = ORIENTED_EDGE ( 'NONE', *, *, #305, .T. ) ;
#216 = EDGE_LOOP ( 'NONE', ( #180, #316, #315, #200 ) ) ;
#217 = FACE_OUTER_BOUND ( 'NONE', #202, .T. ) ;
#218 = APPROVAL_ROLE ( '' ) ;
#219 = DIRECTION ( 'NONE',  ( 1.000000000000000000, 0.0000000000000000000, 0.0000000000000000000 ) ) ;
#220 = PERSON_AND_ORGANIZATION_ROLE ( 'design_supplier' ) ;
#221 = VECTOR ( 'NONE', #184, 1000.000000000000114 ) ;
#222 = APPROVAL_PERSON_ORGANIZATION ( #288, #27, #134 ) ;
#223 = CC_DESIGN_PERSON_AND_ORGANIZATION_ASSIGNMENT ( #186, #220, ( #293 ) ) ;
#224 = VECTOR ( 'NONE', #203, 1000.000000000000114 ) ;
#225 = ADVANCED_FACE ( 'NONE', ( #311 ), #28, .T. ) ;
#226 = ORIENTED_EDGE ( 'NONE', *, *, #247, .F. ) ;
#227 = DESIGN_CONTEXT ( 'detailed design', #16, 'design' ) ;
#228 = EDGE_LOOP ( 'NONE', ( #226, #141, #103, #175, #189 ) ) ;
#229 = SHAPE_DEFINITION_REPRESENTATION ( #72, #214 ) ;
#230 = EDGE_CURVE ( 'NONE', #188, #169, #68, .T. ) ;
#231 = FACE_OUTER_BOUND ( 'NONE', #158, .T. ) ;
#232 = AXIS2_PLACEMENT_3D ( 'NONE', #77, #127, #104 ) ;
#233 = DIRECTION ( 'NONE',  ( -1.000000000000000000, 1.224646799147353207E-16, 0.0000000000000000000 ) ) ;
#234 = CARTESIAN_POINT ( 'NONE',  ( 1.069295080648162477, 0.9682115856179515090, 1.650928455509320214 ) ) ;
#235 = CIRCLE ( 'NONE', #44, 0.9500000000000000666 ) ;
#236 = CARTESIAN_POINT ( 'NONE',  ( 0.06929508064816244928, 0.9682115856179516200, 0.9661531369885324461 ) ) ;
#237 = DIRECTION ( 'NONE',  ( -1.000000000000000000, 0.0000000000000000000, 0.0000000000000000000 ) ) ;
#238 = CARTESIAN_POINT ( 'NONE',  ( 1.069295080648162477, 0.9682115856179515090, 1.600928455509320170 ) ) ;
#239 = AXIS2_PLACEMENT_3D ( 'NONE', #244, #128, #32 ) ;
#240 = ORIENTED_EDGE ( 'NONE', *, *, #277, .T. ) ;
#241 = APPROVAL_STATUS ( 'not_yet_approved' ) ;
#242 = COORDINATED_UNIVERSAL_TIME_OFFSET ( 5, 0, .BEHIND. ) ;
#243 = ORIENTED_EDGE ( 'NONE', *, *, #275, .T. ) ;
#244 = CARTESIAN_POINT ( 'NONE',  ( 1.069295080648162477, 0.9682115856179515090, 0.9161531369885322906 ) ) ;
#245 = PERSON_AND_ORGANIZATION_ROLE ( 'creator' ) ;
#246 = SECURITY_CLASSIFICATION_LEVEL ( 'unclassified' ) ;
#247 = EDGE_CURVE ( 'NONE', #148, #165, #39, .T. ) ;
#248 = EDGE_CURVE ( 'NONE', #188, #204, #295, .T. ) ;
#249 = LOCAL_TIME ( 10, 17, 45.00000000000000000, #242 ) ;
#250 = ADVANCED_FACE ( 'NONE', ( #278 ), #12, .T. ) ;
#251 = ORIENTED_EDGE ( 'NONE', *, *, #53, .F. ) ;
#252 = DIRECTION ( 'NONE',  ( 1.000000000000000000, 0.0000000000000000000, 0.0000000000000000000 ) ) ;
#253 = EDGE_CURVE ( 'NONE', #56, #79, #34, .T. ) ;
#254 = VECTOR ( 'NONE', #255, 1000.000000000000000 ) ;
#255 = DIRECTION ( 'NONE',  ( -0.7071067811865444641, 8.659560562354895880E-17, 0.7071067811865505703 ) ) ;
#256 = APPROVAL_DATE_TIME ( #268, #307 ) ;
#257 = CC_DESIGN_APPROVAL ( #307, ( #293 ) ) ;
#258 = CARTESIAN_POINT ( 'NONE',  ( 2.069295080648162255, 0.9682115856179515090, 1.916153136988532291 ) ) ;
#259 = CARTESIAN_POINT ( 'NONE',  ( 1.069295080648162477, 0.9682115856179516200, 1.916153136988532291 ) ) ;
#260 = CARTESIAN_POINT ( 'NONE',  ( 1.069295080648162477, 0.9682115856179515090, 0.08215313698853224378 ) ) ;
#261 = CYLINDRICAL_SURFACE ( 'NONE', #232, 0.9999999999999997780 ) ;
#262 = CARTESIAN_POINT ( 'NONE',  ( 0.1192950806481621467, 0.9682115856179516200, 0.9161531369885322906 ) ) ;
#263 = DIRECTION ( 'NONE',  ( 0.0000000000000000000, 0.0000000000000000000, 1.000000000000000000 ) ) ;
#264 = DIRECTION ( 'NONE',  ( -0.0000000000000000000, -0.0000000000000000000, 1.000000000000000000 ) ) ;
#265 = CARTESIAN_POINT ( 'NONE',  ( 1.069295080648162477, 0.9682115856179515090, 1.600928455509320170 ) ) ;
#266 = CONICAL_SURFACE ( 'NONE', #59, 0.9999999999999997780, 0.7853981633974439491 ) ;
#267 = CARTESIAN_POINT ( 'NONE',  ( 1.069295080648162477, 0.9682115856179515090, 1.650928455509320214 ) ) ;
#268 = DATE_AND_TIME ( #90, #61 ) ;
#269 =( NAMED_UNIT ( * ) SI_UNIT ( $, .STERADIAN. ) SOLID_ANGLE_UNIT ( ) );
#270 = LOCAL_TIME ( 10, 17, 45.00000000000000000, #282 ) ;
#271 = DATE_AND_TIME ( #8, #249 ) ;
#272 = AXIS2_PLACEMENT_3D ( 'NONE', #114, #194, #66 ) ;
#273 = ORIENTED_EDGE ( 'NONE', *, *, #253, .F. ) ;
#274 = CIRCLE ( 'NONE', #123, 0.9500000000000000666 ) ;
#275 = EDGE_CURVE ( 'NONE', #125, #165, #297, .T. ) ;
#276 = VECTOR ( 'NONE', #31, 1000.000000000000000 ) ;
#277 = EDGE_CURVE ( 'NONE', #84, #148, #143, .T. ) ;
#278 = FACE_OUTER_BOUND ( 'NONE', #4, .T. ) ;
#279 = CARTESIAN_POINT ( 'NONE',  ( 2.069295080648162255, 0.9682115856179515090, 1.600928455509320170 ) ) ;
#280 = AXIS2_PLACEMENT_3D ( 'NONE', #154, #284, #206 ) ;
#281 = FACE_OUTER_BOUND ( 'NONE', #15, .T. ) ;
#282 = COORDINATED_UNIVERSAL_TIME_OFFSET ( 5, 0, .BEHIND. ) ;
#283 = CARTESIAN_POINT ( 'NONE',  ( 1.069295080648162477, 0.9682115856179515090, 0.9661531369885324461 ) ) ;
#284 = DIRECTION ( 'NONE',  ( -1.000000000000000000, 0.0000000000000000000, 0.0000000000000000000 ) ) ;
#285 = AXIS2_PLACEMENT_3D ( 'NONE', #314, #263, #58 ) ;
#286 = DIRECTION ( 'NONE',  ( 0.0000000000000000000, 1.000000000000000000, 0.0000000000000000000 ) ) ;
#287 = VECTOR ( 'NONE', #5, 1000.000000000000000 ) ;
#288 = PERSON_AND_ORGANIZATION ( #116, #150 ) ;
#289 = CARTESIAN_POINT ( 'NONE',  ( 1.069295080648162477, 0.9682115856179515090, 0.9161531369885322906 ) ) ;
#290 =( NAMED_UNIT ( * ) PLANE_ANGLE_UNIT ( ) SI_UNIT ( $, .RADIAN. ) );
#291 = ORIENTED_EDGE ( 'NONE', *, *, #210, .T. ) ;
#292 = CARTESIAN_POINT ( 'NONE',  ( 2.019295080648162433, 0.9682115856179515090, 0.9161531369885322906 ) ) ;
#293 = PRODUCT_DEFINITION_FORMATION_WITH_SPECIFIED_SOURCE ( 'ANY', '', #63, .NOT_KNOWN. ) ;
#294 = DIRECTION ( 'NONE',  ( -0.0000000000000000000, -0.0000000000000000000, 1.000000000000000000 ) ) ;
#295 = CIRCLE ( 'NONE', #142, 0.9500000000000000666 ) ;
#296 = APPLICATION_CONTEXT ( 'configuration controlled 3d designs of mechanical parts and assemblies' ) ;
#297 = LINE ( 'NONE', #258, #276 ) ;
#298 = CC_DESIGN_PERSON_AND_ORGANIZATION_ASSIGNMENT ( #96, #40, ( #63 ) ) ;
#299 = AXIS2_PLACEMENT_3D ( 'NONE', #312, #310, #182 ) ;
#300 = ADVANCED_FACE ( 'NONE', ( #231 ), #261, .T. ) ;
#301 = VECTOR ( 'NONE', #80, 1000.000000000000000 ) ;
#302 = AXIS2_PLACEMENT_3D ( 'NONE', #265, #294, #219 ) ;
#303 = CIRCLE ( 'NONE', #272, 0.9999999999999997780 ) ;
#304 = DIRECTION ( 'NONE',  ( 0.0000000000000000000, 0.0000000000000000000, -1.000000000000000000 ) ) ;
#305 = EDGE_CURVE ( 'NONE', #125, #56, #155, .T. ) ;
#306 = DIRECTION ( 'NONE',  ( -0.0000000000000000000, -0.0000000000000000000, 1.000000000000000000 ) ) ;
#307 = APPROVAL ( #82, 'UNSPECIFIED' ) ;
#308 = MECHANICAL_CONTEXT ( 'NONE', #296, 'mechanical' ) ;
#309 = PRODUCT_DEFINITION ( 'UNKNOWN', '', #293, #227 ) ;
#310 = DIRECTION ( 'NONE',  ( -0.0000000000000000000, -0.0000000000000000000, 1.000000000000000000 ) ) ;
#311 = FACE_OUTER_BOUND ( 'NONE', #216, .T. ) ;
#312 = CARTESIAN_POINT ( 'NONE',  ( 1.069295080648162477, 0.9682115856179515090, 0.9661531369885324461 ) ) ;
#313 = ORIENTED_EDGE ( 'NONE', *, *, #41, .T. ) ;
#314 = CARTESIAN_POINT ( 'NONE',  ( 0.0000000000000000000, 0.0000000000000000000, 0.0000000000000000000 ) ) ;
#315 = ORIENTED_EDGE ( 'NONE', *, *, #305, .F. ) ;
#316 = ORIENTED_EDGE ( 'NONE', *, *, #147, .T. ) ;
#317 = LINE ( 'NONE', #236, #254 ) ;
#318 = ADVANCED_FACE ( 'NONE', ( #201 ), #124, .F. ) ;
#319 = AXIS2_PLACEMENT_3D ( 'NONE', #238, #304, #237 ) ;
#320 = ORIENTED_EDGE ( 'NONE', *, *, #167, .T. ) ;
#321 = APPROVAL ( #159, 'UNSPECIFIED' ) ;
ENDSEC;
END-ISO-10303-21;
