ISO-10303-21;
HEADER;
FILE_DESCRIPTION (( 'STEP AP203' ),
    '1' );
FILE_NAME ('Web Model 22848_22852.step',
    '2022-06-22T12:58:28',
    ( 'WC' ),
    ( 'Windows Central' ),
    'SwSTEP 2.0',
    'SolidWorks 2021',
    '' );
FILE_SCHEMA (( 'CONFIG_CONTROL_DESIGN' ));
ENDSEC;

DATA;
#1 = CARTESIAN_POINT ( 'NONE',  ( 0.000000000000000000, 0.000000000000000000, 1.100000000000000089 ) ) ;
#2 = CLOSED_SHELL ( 'NONE', ( #174, #132, #90, #164 ) ) ;
#3 = CIRCLE ( 'NONE', #156, 12.50000000000000000 ) ;
#4 = ORIENTED_EDGE ( 'NONE', *, *, #54, .T. ) ;
#5 = PERSON_AND_ORGANIZATION ( #171, #22 ) ;
#6 = ADVANCED_BREP_SHAPE_REPRESENTATION ( 'Web Model 22848_22852', ( #136, #134 ), #33 ) ;
#7 = ORIENTED_EDGE ( 'NONE', *, *, #31, .T. ) ;
#8 = AXIS2_PLACEMENT_3D ( 'NONE', #20, #118, #12 ) ;
#9 = DIRECTION ( 'NONE',  ( 0.000000000000000000, 0.000000000000000000, 1.000000000000000000 ) ) ;
#10 = CARTESIAN_POINT ( 'NONE',  ( 0.000000000000000000, 0.000000000000000000, 0.000000000000000000 ) ) ;
#11 = APPLICATION_CONTEXT ( 'configuration controlled 3d designs of mechanical parts and assemblies' ) ;
#12 = DIRECTION ( 'NONE',  ( -1.000000000000000000, 0.000000000000000000, 0.000000000000000000 ) ) ;
#13 = ORIENTED_EDGE ( 'NONE', *, *, #102, .T. ) ;
#14 = APPROVAL_PERSON_ORGANIZATION ( #42, #128, #94 ) ;
#15 = DESIGN_CONTEXT ( 'detailed design', #11, 'design' ) ;
#16 = CIRCLE ( 'NONE', #129, 12.50000000000000000 ) ;
#17 = CARTESIAN_POINT ( 'NONE',  ( 0.000000000000000000, 0.000000000000000000, 1.100000000000000089 ) ) ;
#18 = EDGE_CURVE ( 'NONE', #88, #85, #16, .T. ) ;
#19 = APPROVAL_ROLE ( '' ) ;
#20 = CARTESIAN_POINT ( 'NONE',  ( 0.000000000000000000, 0.000000000000000000, 1.100000000000000089 ) ) ;
#21 = DATE_AND_TIME ( #93, #170 ) ;
#22 = ORGANIZATION ( 'UNSPECIFIED', 'UNSPECIFIED', '' ) ;
#23 = DIRECTION ( 'NONE',  ( 1.000000000000000000, 0.000000000000000000, 0.000000000000000000 ) ) ;
#24 = APPROVAL_STATUS ( 'not_yet_approved' ) ;
#25 = CC_DESIGN_APPROVAL ( #158, ( #45 ) ) ;
#26 = CYLINDRICAL_SURFACE ( 'NONE', #69, 12.50000000000000000 ) ;
#27 = CARTESIAN_POINT ( 'NONE',  ( 12.50000000000000000, 1.530808498934191521E-15, 1.100000000000000089 ) ) ;
#28 = ORIENTED_EDGE ( 'NONE', *, *, #113, .T. ) ;
#29 = PERSON_AND_ORGANIZATION_ROLE ( 'creator' ) ;
#30 = APPROVAL_PERSON_ORGANIZATION ( #147, #139, #19 ) ;
#31 = EDGE_CURVE ( 'NONE', #85, #44, #70, .T. ) ;
#32 = CIRCLE ( 'NONE', #114, 12.50000000000000000 ) ;
#33 =( GEOMETRIC_REPRESENTATION_CONTEXT ( 3 ) GLOBAL_UNCERTAINTY_ASSIGNED_CONTEXT ( ( #160 ) ) GLOBAL_UNIT_ASSIGNED_CONTEXT ( ( #34, #35, #63 ) ) REPRESENTATION_CONTEXT ( 'NONE', 'WORKASPACE' ) );
#34 =( LENGTH_UNIT ( ) NAMED_UNIT ( * ) SI_UNIT ( .MILLI., .METRE. ) );
#35 =( NAMED_UNIT ( * ) PLANE_ANGLE_UNIT ( ) SI_UNIT ( $, .RADIAN. ) );
#36 = DIRECTION ( 'NONE',  ( 1.000000000000000000, 0.000000000000000000, 0.000000000000000000 ) ) ;
#37 = DIRECTION ( 'NONE',  ( 1.000000000000000000, 0.000000000000000000, 0.000000000000000000 ) ) ;
#38 = PERSON_AND_ORGANIZATION ( #171, #22 ) ;
#39 = AXIS2_PLACEMENT_3D ( 'NONE', #65, #9, #172 ) ;
#40 = EDGE_CURVE ( 'NONE', #44, #159, #3, .T. ) ;
#41 = PERSON_AND_ORGANIZATION_ROLE ( 'design_supplier' ) ;
#42 = PERSON_AND_ORGANIZATION ( #171, #22 ) ;
#43 = CC_DESIGN_APPROVAL ( #139, ( #151 ) ) ;
#44 = VERTEX_POINT ( 'NONE', #53 ) ;
#45 = PRODUCT_DEFINITION ( 'UNKNOWN', '', #48, #15 ) ;
#46 = APPROVAL_STATUS ( 'not_yet_approved' ) ;
#47 = ORIENTED_EDGE ( 'NONE', *, *, #40, .T. ) ;
#48 = PRODUCT_DEFINITION_FORMATION_WITH_SPECIFIED_SOURCE ( 'ANY', '', #103, .NOT_KNOWN. ) ;
#49 = PLANE ( 'NONE',  #39 ) ;
#50 = ORIENTED_EDGE ( 'NONE', *, *, #31, .F. ) ;
#51 = PERSON_AND_ORGANIZATION ( #171, #22 ) ;
#52 = APPROVAL_DATE_TIME ( #123, #158 ) ;
#53 = CARTESIAN_POINT ( 'NONE',  ( 12.50000000000000000, 1.530808498934191521E-15, 0.000000000000000000 ) ) ;
#54 = EDGE_CURVE ( 'NONE', #159, #44, #99, .T. ) ;
#55 = DIRECTION ( 'NONE',  ( 0.000000000000000000, 0.000000000000000000, 1.000000000000000000 ) ) ;
#56 = PRODUCT_DEFINITION_SHAPE ( 'NONE', 'NONE',  #45 ) ;
#57 = LINE ( 'NONE', #106, #146 ) ;
#58 = PERSON_AND_ORGANIZATION_ROLE ( 'creator' ) ;
#59 = COORDINATED_UNIVERSAL_TIME_OFFSET ( 5, 0, .BEHIND. ) ;
#60 = APPROVAL_DATE_TIME ( #163, #128 ) ;
#61 = APPLICATION_PROTOCOL_DEFINITION ( 'international standard', 'config_control_design', 1994, #115 ) ;
#62 = CC_DESIGN_SECURITY_CLASSIFICATION ( #151, ( #48 ) ) ;
#63 =( NAMED_UNIT ( * ) SI_UNIT ( $, .STERADIAN. ) SOLID_ANGLE_UNIT ( ) );
#64 = DIRECTION ( 'NONE',  ( 1.000000000000000000, 0.000000000000000000, 0.000000000000000000 ) ) ;
#65 = CARTESIAN_POINT ( 'NONE',  ( 0.000000000000000000, 0.000000000000000000, 0.000000000000000000 ) ) ;
#66 = APPROVAL_PERSON_ORGANIZATION ( #38, #158, #108 ) ;
#67 = SECURITY_CLASSIFICATION_LEVEL ( 'unclassified' ) ;
#68 = PRODUCT_RELATED_PRODUCT_CATEGORY ( 'detail', '', ( #103 ) ) ;
#69 = AXIS2_PLACEMENT_3D ( 'NONE', #71, #87, #89 ) ;
#70 = LINE ( 'NONE', #121, #79 ) ;
#71 = CARTESIAN_POINT ( 'NONE',  ( 0.000000000000000000, 0.000000000000000000, 1.100000000000000089 ) ) ;
#72 = ORIENTED_EDGE ( 'NONE', *, *, #18, .T. ) ;
#73 = FACE_OUTER_BOUND ( 'NONE', #162, .T. ) ;
#74 = ORIENTED_EDGE ( 'NONE', *, *, #54, .F. ) ;
#75 = COORDINATED_UNIVERSAL_TIME_OFFSET ( 5, 0, .BEHIND. ) ;
#76 = CC_DESIGN_PERSON_AND_ORGANIZATION_ASSIGNMENT ( #51, #142, ( #103 ) ) ;
#77 = LOCAL_TIME ( 8, 58, 28.00000000000000000, #59 ) ;
#78 = ORIENTED_EDGE ( 'NONE', *, *, #40, .F. ) ;
#79 = VECTOR ( 'NONE', #137, 1000.000000000000000 ) ;
#80 = CC_DESIGN_DATE_AND_TIME_ASSIGNMENT ( #105, #161, ( #45 ) ) ;
#81 = CALENDAR_DATE ( 2022, 22, 6 ) ;
#82 = CARTESIAN_POINT ( 'NONE',  ( 0.000000000000000000, 0.000000000000000000, 1.100000000000000089 ) ) ;
#83 = CALENDAR_DATE ( 2022, 22, 6 ) ;
#84 = LOCAL_TIME ( 8, 58, 28.00000000000000000, #91 ) ;
#85 = VERTEX_POINT ( 'NONE', #27 ) ;
#86 = EDGE_LOOP ( 'NONE', ( #50, #125, #28, #4 ) ) ;
#87 = DIRECTION ( 'NONE',  ( -0.000000000000000000, -0.000000000000000000, -1.000000000000000000 ) ) ;
#88 = VERTEX_POINT ( 'NONE', #109 ) ;
#89 = DIRECTION ( 'NONE',  ( -1.000000000000000000, 0.000000000000000000, 0.000000000000000000 ) ) ;
#90 = ADVANCED_FACE ( 'NONE', ( #73 ), #173, .T. ) ;
#91 = COORDINATED_UNIVERSAL_TIME_OFFSET ( 5, 0, .BEHIND. ) ;
#92 = DIRECTION ( 'NONE',  ( 0.000000000000000000, 0.000000000000000000, 1.000000000000000000 ) ) ;
#93 = CALENDAR_DATE ( 2022, 22, 6 ) ;
#94 = APPROVAL_ROLE ( '' ) ;
#95 = COORDINATED_UNIVERSAL_TIME_OFFSET ( 5, 0, .BEHIND. ) ;
#96 = FACE_OUTER_BOUND ( 'NONE', #145, .T. ) ;
#97 = DIRECTION ( 'NONE',  ( 0.000000000000000000, 0.000000000000000000, 1.000000000000000000 ) ) ;
#98 = PERSON_AND_ORGANIZATION ( #171, #22 ) ;
#99 = CIRCLE ( 'NONE', #107, 12.50000000000000000 ) ;
#100 = APPLICATION_PROTOCOL_DEFINITION ( 'international standard', 'config_control_design', 1994, #11 ) ;
#101 = DIRECTION ( 'NONE',  ( 1.000000000000000000, 0.000000000000000000, 0.000000000000000000 ) ) ;
#102 = EDGE_CURVE ( 'NONE', #85, #88, #32, .T. ) ;
#103 = PRODUCT ( 'Web Model 22848_22852', 'Web Model 22848_22852', '', ( #138 ) ) ;
#104 = CYLINDRICAL_SURFACE ( 'NONE', #8, 12.50000000000000000 ) ;
#105 = DATE_AND_TIME ( #81, #127 ) ;
#106 = CARTESIAN_POINT ( 'NONE',  ( -12.50000000000000000, 0.000000000000000000, 1.100000000000000089 ) ) ;
#107 = AXIS2_PLACEMENT_3D ( 'NONE', #10, #141, #64 ) ;
#108 = APPROVAL_ROLE ( '' ) ;
#109 = CARTESIAN_POINT ( 'NONE',  ( -12.50000000000000000, 0.000000000000000000, 1.100000000000000089 ) ) ;
#110 = FACE_OUTER_BOUND ( 'NONE', #86, .T. ) ;
#111 = LOCAL_TIME ( 8, 58, 28.00000000000000000, #150 ) ;
#112 = DIRECTION ( 'NONE',  ( 1.000000000000000000, 0.000000000000000000, -0.000000000000000000 ) ) ;
#113 = EDGE_CURVE ( 'NONE', #88, #159, #57, .T. ) ;
#114 = AXIS2_PLACEMENT_3D ( 'NONE', #1, #55, #101 ) ;
#115 = APPLICATION_CONTEXT ( 'configuration controlled 3d designs of mechanical parts and assemblies' ) ;
#116 = CC_DESIGN_DATE_AND_TIME_ASSIGNMENT ( #148, #117, ( #151 ) ) ;
#117 = DATE_TIME_ROLE ( 'classification_date' ) ;
#118 = DIRECTION ( 'NONE',  ( -0.000000000000000000, -0.000000000000000000, -1.000000000000000000 ) ) ;
#119 = PERSON_AND_ORGANIZATION ( #171, #22 ) ;
#120 = CC_DESIGN_PERSON_AND_ORGANIZATION_ASSIGNMENT ( #98, #29, ( #45 ) ) ;
#121 = CARTESIAN_POINT ( 'NONE',  ( 12.50000000000000000, 1.530808498934191521E-15, 1.100000000000000089 ) ) ;
#122 = APPROVAL_DATE_TIME ( #21, #139 ) ;
#123 = DATE_AND_TIME ( #140, #84 ) ;
#124 = CARTESIAN_POINT ( 'NONE',  ( 0.000000000000000000, 0.000000000000000000, 0.000000000000000000 ) ) ;
#125 = ORIENTED_EDGE ( 'NONE', *, *, #18, .F. ) ;
#126 = CARTESIAN_POINT ( 'NONE',  ( -12.50000000000000000, 0.000000000000000000, 0.000000000000000000 ) ) ;
#127 = LOCAL_TIME ( 8, 58, 28.00000000000000000, #75 ) ;
#128 = APPROVAL ( #24, 'UNSPECIFIED' ) ;
#129 = AXIS2_PLACEMENT_3D ( 'NONE', #82, #133, #23 ) ;
#130 = PERSON_AND_ORGANIZATION_ROLE ( 'classification_officer' ) ;
#131 = DIRECTION ( 'NONE',  ( -0.000000000000000000, -0.000000000000000000, -1.000000000000000000 ) ) ;
#132 = ADVANCED_FACE ( 'NONE', ( #110 ), #104, .T. ) ;
#133 = DIRECTION ( 'NONE',  ( 0.000000000000000000, 0.000000000000000000, 1.000000000000000000 ) ) ;
#134 = AXIS2_PLACEMENT_3D ( 'NONE', #152, #97, #37 ) ;
#135 = CALENDAR_DATE ( 2022, 22, 6 ) ;
#136 = MANIFOLD_SOLID_BREP ( 'Boss-Extrude1', #2 ) ;
#137 = DIRECTION ( 'NONE',  ( -0.000000000000000000, -0.000000000000000000, -1.000000000000000000 ) ) ;
#138 = MECHANICAL_CONTEXT ( 'NONE', #115, 'mechanical' ) ;
#139 = APPROVAL ( #46, 'UNSPECIFIED' ) ;
#140 = CALENDAR_DATE ( 2022, 22, 6 ) ;
#141 = DIRECTION ( 'NONE',  ( 0.000000000000000000, 0.000000000000000000, 1.000000000000000000 ) ) ;
#142 = PERSON_AND_ORGANIZATION_ROLE ( 'design_owner' ) ;
#143 = FACE_OUTER_BOUND ( 'NONE', #157, .T. ) ;
#144 = CC_DESIGN_APPROVAL ( #128, ( #48 ) ) ;
#145 = EDGE_LOOP ( 'NONE', ( #169, #7, #47, #153 ) ) ;
#146 = VECTOR ( 'NONE', #131, 1000.000000000000000 ) ;
#147 = PERSON_AND_ORGANIZATION ( #171, #22 ) ;
#148 = DATE_AND_TIME ( #135, #77 ) ;
#149 = CC_DESIGN_PERSON_AND_ORGANIZATION_ASSIGNMENT ( #119, #41, ( #48 ) ) ;
#150 = COORDINATED_UNIVERSAL_TIME_OFFSET ( 5, 0, .BEHIND. ) ;
#151 = SECURITY_CLASSIFICATION ( '', '', #67 ) ;
#152 = CARTESIAN_POINT ( 'NONE',  ( 0.000000000000000000, 0.000000000000000000, 0.000000000000000000 ) ) ;
#153 = ORIENTED_EDGE ( 'NONE', *, *, #113, .F. ) ;
#154 = APPROVAL_STATUS ( 'not_yet_approved' ) ;
#155 = DIRECTION ( 'NONE',  ( 0.000000000000000000, 0.000000000000000000, 1.000000000000000000 ) ) ;
#156 = AXIS2_PLACEMENT_3D ( 'NONE', #124, #155, #36 ) ;
#157 = EDGE_LOOP ( 'NONE', ( #74, #78 ) ) ;
#158 = APPROVAL ( #154, 'UNSPECIFIED' ) ;
#159 = VERTEX_POINT ( 'NONE', #126 ) ;
#160 = UNCERTAINTY_MEASURE_WITH_UNIT (LENGTH_MEASURE( 1.000000000000000082E-05 ), #34, 'distance_accuracy_value', 'NONE');
#161 = DATE_TIME_ROLE ( 'creation_date' ) ;
#162 = EDGE_LOOP ( 'NONE', ( #72, #13 ) ) ;
#163 = DATE_AND_TIME ( #83, #111 ) ;
#164 = ADVANCED_FACE ( 'NONE', ( #143 ), #49, .F. ) ;
#165 = AXIS2_PLACEMENT_3D ( 'NONE', #17, #92, #112 ) ;
#166 = PERSON_AND_ORGANIZATION ( #171, #22 ) ;
#167 = CC_DESIGN_PERSON_AND_ORGANIZATION_ASSIGNMENT ( #166, #58, ( #48 ) ) ;
#168 = SHAPE_DEFINITION_REPRESENTATION ( #56, #6 ) ;
#169 = ORIENTED_EDGE ( 'NONE', *, *, #102, .F. ) ;
#170 = LOCAL_TIME ( 8, 58, 28.00000000000000000, #95 ) ;
#171 = PERSON ( 'UNSPECIFIED', 'UNSPECIFIED', 'UNSPECIFIED', ('UNSPECIFIED'), ('UNSPECIFIED'), ('UNSPECIFIED') ) ;
#172 = DIRECTION ( 'NONE',  ( 1.000000000000000000, 0.000000000000000000, -0.000000000000000000 ) ) ;
#173 = PLANE ( 'NONE',  #165 ) ;
#174 = ADVANCED_FACE ( 'NONE', ( #96 ), #26, .T. ) ;
#175 = CC_DESIGN_PERSON_AND_ORGANIZATION_ASSIGNMENT ( #5, #130, ( #151 ) ) ;
ENDSEC;
END-ISO-10303-21;
