ISO-10303-21;
HEADER;
FILE_DESCRIPTION (( 'STEP AP203' ),
    '1' );
FILE_NAME ('Web Model 84460_13348.step',
    '2020-11-04T13:10:38',
    ( '' ),
    ( '' ),
    'SwSTEP 2.0',
    'SolidWorks 2018',
    '' );
FILE_SCHEMA (( 'CONFIG_CONTROL_DESIGN' ));
ENDSEC;

DATA;
#1 = CC_DESIGN_APPROVAL ( #26, ( #29 ) ) ;
#2 = APPROVAL_DATE_TIME ( #23, #5 ) ;
#3 = UNCERTAINTY_MEASURE_WITH_UNIT (LENGTH_MEASURE( 1.000000000000000082E-05 ), #170, 'distance_accuracy_value', 'NONE');
#4 = CARTESIAN_POINT ( 'NONE',  ( 0.0000000000000000000, 0.0000000000000000000, 0.0000000000000000000 ) ) ;
#5 = APPROVAL ( #57, 'UNSPECIFIED' ) ;
#6 = CALENDAR_DATE ( 2020, 4, 11 ) ;
#7 = PERSON_AND_ORGANIZATION ( #107, #134 ) ;
#8 = APPLICATION_PROTOCOL_DEFINITION ( 'international standard', 'config_control_design', 1994, #112 ) ;
#9 = DIRECTION ( 'NONE',  ( 1.000000000000000000, 0.0000000000000000000, -0.0000000000000000000 ) ) ;
#10 = ORIENTED_EDGE ( 'NONE', *, *, #61, .T. ) ;
#11 = AXIS2_PLACEMENT_3D ( 'NONE', #37, #50, #97 ) ;
#12 = AXIS2_PLACEMENT_3D ( 'NONE', #92, #143, #95 ) ;
#13 = CYLINDRICAL_SURFACE ( 'NONE', #35, 5.000000000000000000 ) ;
#14 = LOCAL_TIME ( 8, 10, 38.00000000000000000, #120 ) ;
#15 = AXIS2_PLACEMENT_3D ( 'NONE', #94, #39, #20 ) ;
#16 = VERTEX_POINT ( 'NONE', #53 ) ;
#17 = CARTESIAN_POINT ( 'NONE',  ( 0.0000000000000000000, 0.0000000000000000000, -1.250000000000000000 ) ) ;
#18 = PERSON_AND_ORGANIZATION ( #107, #134 ) ;
#19 = LOCAL_TIME ( 8, 10, 38.00000000000000000, #25 ) ;
#20 = DIRECTION ( 'NONE',  ( 1.000000000000000000, 0.0000000000000000000, 0.0000000000000000000 ) ) ;
#21 = APPLICATION_CONTEXT ( 'configuration controlled 3d designs of mechanical parts and assemblies' ) ;
#22 = CC_DESIGN_PERSON_AND_ORGANIZATION_ASSIGNMENT ( #41, #79, ( #29 ) ) ;
#23 = DATE_AND_TIME ( #51, #33 ) ;
#24 = PRODUCT_DEFINITION ( 'UNKNOWN', '', #29, #118 ) ;
#25 = COORDINATED_UNIVERSAL_TIME_OFFSET ( 5, 0, .BEHIND. ) ;
#26 = APPROVAL ( #169, 'UNSPECIFIED' ) ;
#27 = MECHANICAL_CONTEXT ( 'NONE', #21, 'mechanical' ) ;
#28 = PERSON_AND_ORGANIZATION_ROLE ( 'classification_officer' ) ;
#29 = PRODUCT_DEFINITION_FORMATION_WITH_SPECIFIED_SOURCE ( 'ANY', '', #109, .NOT_KNOWN. ) ;
#30 = ORIENTED_EDGE ( 'NONE', *, *, #129, .F. ) ;
#31 = CC_DESIGN_PERSON_AND_ORGANIZATION_ASSIGNMENT ( #7, #135, ( #29 ) ) ;
#32 = COORDINATED_UNIVERSAL_TIME_OFFSET ( 5, 0, .BEHIND. ) ;
#33 = LOCAL_TIME ( 8, 10, 38.00000000000000000, #32 ) ;
#34 = EDGE_LOOP ( 'NONE', ( #10, #119 ) ) ;
#35 = AXIS2_PLACEMENT_3D ( 'NONE', #75, #163, #110 ) ;
#36 = DATE_AND_TIME ( #82, #85 ) ;
#37 = CARTESIAN_POINT ( 'NONE',  ( 0.0000000000000000000, 0.0000000000000000000, 0.0000000000000000000 ) ) ;
#38 = PLANE ( 'NONE',  #117 ) ;
#39 = DIRECTION ( 'NONE',  ( 0.0000000000000000000, 0.0000000000000000000, 1.000000000000000000 ) ) ;
#40 = VERTEX_POINT ( 'NONE', #64 ) ;
#41 = PERSON_AND_ORGANIZATION ( #107, #134 ) ;
#42 = DIRECTION ( 'NONE',  ( 0.0000000000000000000, 0.0000000000000000000, 1.000000000000000000 ) ) ;
#43 = APPROVAL_STATUS ( 'not_yet_approved' ) ;
#44 = COORDINATED_UNIVERSAL_TIME_OFFSET ( 5, 0, .BEHIND. ) ;
#45 = CC_DESIGN_SECURITY_CLASSIFICATION ( #47, ( #29 ) ) ;
#46 = CIRCLE ( 'NONE', #15, 5.000000000000000000 ) ;
#47 = SECURITY_CLASSIFICATION ( '', '', #114 ) ;
#48 = PLANE ( 'NONE',  #65 ) ;
#49 = CIRCLE ( 'NONE', #86, 5.000000000000000000 ) ;
#50 = DIRECTION ( 'NONE',  ( 0.0000000000000000000, 0.0000000000000000000, 1.000000000000000000 ) ) ;
#51 = CALENDAR_DATE ( 2020, 4, 11 ) ;
#52 = ADVANCED_FACE ( 'NONE', ( #69 ), #48, .T. ) ;
#53 = CARTESIAN_POINT ( 'NONE',  ( 5.000000000000000000, 0.0000000000000000000, -1.250000000000000000 ) ) ;
#54 = ORIENTED_EDGE ( 'NONE', *, *, #105, .F. ) ;
#55 = FACE_OUTER_BOUND ( 'NONE', #122, .T. ) ;
#56 = DATE_AND_TIME ( #90, #14 ) ;
#57 = APPROVAL_STATUS ( 'not_yet_approved' ) ;
#58 = DATE_AND_TIME ( #121, #19 ) ;
#59 = CC_DESIGN_PERSON_AND_ORGANIZATION_ASSIGNMENT ( #145, #28, ( #47 ) ) ;
#60 = ORIENTED_EDGE ( 'NONE', *, *, #167, .F. ) ;
#61 = EDGE_CURVE ( 'NONE', #40, #99, #165, .T. ) ;
#62 = ADVANCED_FACE ( 'NONE', ( #55 ), #88, .T. ) ;
#63 = DIRECTION ( 'NONE',  ( 0.0000000000000000000, 0.0000000000000000000, 1.000000000000000000 ) ) ;
#64 = CARTESIAN_POINT ( 'NONE',  ( 5.000000000000000000, 0.0000000000000000000, 0.0000000000000000000 ) ) ;
#65 = AXIS2_PLACEMENT_3D ( 'NONE', #4, #63, #126 ) ;
#66 = CC_DESIGN_DATE_AND_TIME_ASSIGNMENT ( #36, #68, ( #47 ) ) ;
#67 = APPLICATION_PROTOCOL_DEFINITION ( 'international standard', 'config_control_design', 1994, #21 ) ;
#68 = DATE_TIME_ROLE ( 'classification_date' ) ;
#69 = FACE_OUTER_BOUND ( 'NONE', #34, .T. ) ;
#70 = PERSON_AND_ORGANIZATION ( #107, #134 ) ;
#71 = CC_DESIGN_PERSON_AND_ORGANIZATION_ASSIGNMENT ( #70, #154, ( #109 ) ) ;
#72 = ADVANCED_BREP_SHAPE_REPRESENTATION ( 'Web Model 84460_13348', ( #174, #12 ), #141 ) ;
#73 = APPROVAL ( #43, 'UNSPECIFIED' ) ;
#74 = CARTESIAN_POINT ( 'NONE',  ( 0.0000000000000000000, 0.0000000000000000000, -1.250000000000000000 ) ) ;
#75 = CARTESIAN_POINT ( 'NONE',  ( 0.0000000000000000000, 0.0000000000000000000, -1.250000000000000000 ) ) ;
#76 = DIRECTION ( 'NONE',  ( 0.0000000000000000000, 0.0000000000000000000, 1.000000000000000000 ) ) ;
#77 = CC_DESIGN_PERSON_AND_ORGANIZATION_ASSIGNMENT ( #161, #132, ( #24 ) ) ;
#78 =( NAMED_UNIT ( * ) SI_UNIT ( $, .STERADIAN. ) SOLID_ANGLE_UNIT ( ) );
#79 = PERSON_AND_ORGANIZATION_ROLE ( 'creator' ) ;
#80 = FACE_OUTER_BOUND ( 'NONE', #81, .T. ) ;
#81 = EDGE_LOOP ( 'NONE', ( #138, #150, #140, #60 ) ) ;
#82 = CALENDAR_DATE ( 2020, 4, 11 ) ;
#83 = VECTOR ( 'NONE', #166, 1000.000000000000000 ) ;
#84 = PERSON_AND_ORGANIZATION ( #107, #134 ) ;
#85 = LOCAL_TIME ( 8, 10, 38.00000000000000000, #93 ) ;
#86 = AXIS2_PLACEMENT_3D ( 'NONE', #17, #76, #127 ) ;
#87 = SHAPE_DEFINITION_REPRESENTATION ( #147, #72 ) ;
#88 = CYLINDRICAL_SURFACE ( 'NONE', #144, 5.000000000000000000 ) ;
#89 = CARTESIAN_POINT ( 'NONE',  ( 0.0000000000000000000, 0.0000000000000000000, 0.0000000000000000000 ) ) ;
#90 = CALENDAR_DATE ( 2020, 4, 11 ) ;
#91 = DIRECTION ( 'NONE',  ( 0.0000000000000000000, 0.0000000000000000000, 1.000000000000000000 ) ) ;
#92 = CARTESIAN_POINT ( 'NONE',  ( 0.0000000000000000000, 0.0000000000000000000, 0.0000000000000000000 ) ) ;
#93 = COORDINATED_UNIVERSAL_TIME_OFFSET ( 5, 0, .BEHIND. ) ;
#94 = CARTESIAN_POINT ( 'NONE',  ( 0.0000000000000000000, 0.0000000000000000000, -1.250000000000000000 ) ) ;
#95 = DIRECTION ( 'NONE',  ( 1.000000000000000000, 0.0000000000000000000, 0.0000000000000000000 ) ) ;
#96 = CC_DESIGN_APPROVAL ( #73, ( #47 ) ) ;
#97 = DIRECTION ( 'NONE',  ( 1.000000000000000000, 0.0000000000000000000, 0.0000000000000000000 ) ) ;
#98 = CIRCLE ( 'NONE', #11, 5.000000000000000000 ) ;
#99 = VERTEX_POINT ( 'NONE', #108 ) ;
#100 = VERTEX_POINT ( 'NONE', #153 ) ;
#101 = PERSON_AND_ORGANIZATION ( #107, #134 ) ;
#102 = ORIENTED_EDGE ( 'NONE', *, *, #123, .F. ) ;
#103 = APPROVAL_PERSON_ORGANIZATION ( #84, #5, #131 ) ;
#104 = DIRECTION ( 'NONE',  ( 0.0000000000000000000, 0.0000000000000000000, 1.000000000000000000 ) ) ;
#105 = EDGE_CURVE ( 'NONE', #100, #99, #133, .T. ) ;
#106 = DIRECTION ( 'NONE',  ( 1.000000000000000000, 0.0000000000000000000, 0.0000000000000000000 ) ) ;
#107 = PERSON ( 'UNSPECIFIED', 'UNSPECIFIED', 'UNSPECIFIED', ('UNSPECIFIED'), ('UNSPECIFIED'), ('UNSPECIFIED') ) ;
#108 = CARTESIAN_POINT ( 'NONE',  ( -5.000000000000000000, 6.123233995736766282E-16, 0.0000000000000000000 ) ) ;
#109 = PRODUCT ( 'Web Model 84460_13348', 'Web Model 84460_13348', '', ( #27 ) ) ;
#110 = DIRECTION ( 'NONE',  ( 1.000000000000000000, 0.0000000000000000000, 0.0000000000000000000 ) ) ;
#111 = APPROVAL_ROLE ( '' ) ;
#112 = APPLICATION_CONTEXT ( 'configuration controlled 3d designs of mechanical parts and assemblies' ) ;
#113 = CLOSED_SHELL ( 'NONE', ( #124, #62, #164, #52 ) ) ;
#114 = SECURITY_CLASSIFICATION_LEVEL ( 'unclassified' ) ;
#115 = VECTOR ( 'NONE', #156, 1000.000000000000000 ) ;
#116 = APPROVAL_DATE_TIME ( #56, #26 ) ;
#117 = AXIS2_PLACEMENT_3D ( 'NONE', #125, #42, #9 ) ;
#118 = DESIGN_CONTEXT ( 'detailed design', #112, 'design' ) ;
#119 = ORIENTED_EDGE ( 'NONE', *, *, #129, .T. ) ;
#120 = COORDINATED_UNIVERSAL_TIME_OFFSET ( 5, 0, .BEHIND. ) ;
#121 = CALENDAR_DATE ( 2020, 4, 11 ) ;
#122 = EDGE_LOOP ( 'NONE', ( #54, #142, #160, #30 ) ) ;
#123 = EDGE_CURVE ( 'NONE', #16, #100, #49, .T. ) ;
#124 = ADVANCED_FACE ( 'NONE', ( #80 ), #13, .T. ) ;
#125 = CARTESIAN_POINT ( 'NONE',  ( 0.0000000000000000000, 0.0000000000000000000, -1.250000000000000000 ) ) ;
#126 = DIRECTION ( 'NONE',  ( 1.000000000000000000, 0.0000000000000000000, -0.0000000000000000000 ) ) ;
#127 = DIRECTION ( 'NONE',  ( 1.000000000000000000, 0.0000000000000000000, 0.0000000000000000000 ) ) ;
#128 = DIRECTION ( 'NONE',  ( 1.000000000000000000, 0.0000000000000000000, 0.0000000000000000000 ) ) ;
#129 = EDGE_CURVE ( 'NONE', #99, #40, #98, .T. ) ;
#130 = ORIENTED_EDGE ( 'NONE', *, *, #162, .F. ) ;
#131 = APPROVAL_ROLE ( '' ) ;
#132 = PERSON_AND_ORGANIZATION_ROLE ( 'creator' ) ;
#133 = LINE ( 'NONE', #152, #83 ) ;
#134 = ORGANIZATION ( 'UNSPECIFIED', 'UNSPECIFIED', '' ) ;
#135 = PERSON_AND_ORGANIZATION_ROLE ( 'design_supplier' ) ;
#136 = AXIS2_PLACEMENT_3D ( 'NONE', #89, #104, #106 ) ;
#137 = APPROVAL_DATE_TIME ( #58, #73 ) ;
#138 = ORIENTED_EDGE ( 'NONE', *, *, #123, .T. ) ;
#139 = APPROVAL_PERSON_ORGANIZATION ( #18, #26, #173 ) ;
#140 = ORIENTED_EDGE ( 'NONE', *, *, #61, .F. ) ;
#141 =( GEOMETRIC_REPRESENTATION_CONTEXT ( 3 ) GLOBAL_UNCERTAINTY_ASSIGNED_CONTEXT ( ( #3 ) ) GLOBAL_UNIT_ASSIGNED_CONTEXT ( ( #170, #155, #78 ) ) REPRESENTATION_CONTEXT ( 'NONE', 'WORKASPACE' ) );
#142 = ORIENTED_EDGE ( 'NONE', *, *, #162, .T. ) ;
#143 = DIRECTION ( 'NONE',  ( 0.0000000000000000000, 0.0000000000000000000, 1.000000000000000000 ) ) ;
#144 = AXIS2_PLACEMENT_3D ( 'NONE', #74, #91, #128 ) ;
#145 = PERSON_AND_ORGANIZATION ( #107, #134 ) ;
#146 = CARTESIAN_POINT ( 'NONE',  ( 5.000000000000000000, 0.0000000000000000000, -1.250000000000000000 ) ) ;
#147 = PRODUCT_DEFINITION_SHAPE ( 'NONE', 'NONE',  #24 ) ;
#148 = LOCAL_TIME ( 8, 10, 38.00000000000000000, #44 ) ;
#149 = CC_DESIGN_APPROVAL ( #5, ( #24 ) ) ;
#150 = ORIENTED_EDGE ( 'NONE', *, *, #105, .T. ) ;
#151 = LINE ( 'NONE', #146, #115 ) ;
#152 = CARTESIAN_POINT ( 'NONE',  ( -5.000000000000000000, 6.123233995736766282E-16, -1.250000000000000000 ) ) ;
#153 = CARTESIAN_POINT ( 'NONE',  ( -5.000000000000000000, 6.123233995736766282E-16, -1.250000000000000000 ) ) ;
#154 = PERSON_AND_ORGANIZATION_ROLE ( 'design_owner' ) ;
#155 =( NAMED_UNIT ( * ) PLANE_ANGLE_UNIT ( ) SI_UNIT ( $, .RADIAN. ) );
#156 = DIRECTION ( 'NONE',  ( 0.0000000000000000000, 0.0000000000000000000, 1.000000000000000000 ) ) ;
#157 = PRODUCT_RELATED_PRODUCT_CATEGORY ( 'detail', '', ( #109 ) ) ;
#158 = FACE_OUTER_BOUND ( 'NONE', #175, .T. ) ;
#159 = CC_DESIGN_DATE_AND_TIME_ASSIGNMENT ( #172, #171, ( #24 ) ) ;
#160 = ORIENTED_EDGE ( 'NONE', *, *, #167, .T. ) ;
#161 = PERSON_AND_ORGANIZATION ( #107, #134 ) ;
#162 = EDGE_CURVE ( 'NONE', #100, #16, #46, .T. ) ;
#163 = DIRECTION ( 'NONE',  ( 0.0000000000000000000, 0.0000000000000000000, 1.000000000000000000 ) ) ;
#164 = ADVANCED_FACE ( 'NONE', ( #158 ), #38, .F. ) ;
#165 = CIRCLE ( 'NONE', #136, 5.000000000000000000 ) ;
#166 = DIRECTION ( 'NONE',  ( 0.0000000000000000000, 0.0000000000000000000, 1.000000000000000000 ) ) ;
#167 = EDGE_CURVE ( 'NONE', #16, #40, #151, .T. ) ;
#168 = APPROVAL_PERSON_ORGANIZATION ( #101, #73, #111 ) ;
#169 = APPROVAL_STATUS ( 'not_yet_approved' ) ;
#170 =( LENGTH_UNIT ( ) NAMED_UNIT ( * ) SI_UNIT ( .MILLI., .METRE. ) );
#171 = DATE_TIME_ROLE ( 'creation_date' ) ;
#172 = DATE_AND_TIME ( #6, #148 ) ;
#173 = APPROVAL_ROLE ( '' ) ;
#174 = MANIFOLD_SOLID_BREP ( 'Extrude1', #113 ) ;
#175 = EDGE_LOOP ( 'NONE', ( #102, #130 ) ) ;
ENDSEC;
END-ISO-10303-21;
