ISO-10303-21;
HEADER;
FILE_DESCRIPTION (( 'STEP AP203' ),
    '1' );
FILE_NAME ('Web Model 43889_12185.step',
    '2019-01-28T19:01:37',
    ( '' ),
    ( '' ),
    'SwSTEP 2.0',
    'SolidWorks 2016',
    '' );
FILE_SCHEMA (( 'CONFIG_CONTROL_DESIGN' ));
ENDSEC;

DATA;
#1 = CIRCLE ( 'NONE', #97, 5.000000000000000000 ) ;
#2 = EDGE_CURVE ( 'NONE', #64, #144, #1, .T. ) ;
#3 = APPROVAL ( #32, 'UNSPECIFIED' ) ;
#4 = EDGE_CURVE ( 'NONE', #94, #160, #145, .T. ) ;
#5 = DIRECTION ( 'NONE',  ( 1.000000000000000000, 0.0000000000000000000, 0.0000000000000000000 ) ) ;
#6 = PRODUCT_DEFINITION ( 'UNKNOWN', '', #26, #110 ) ;
#7 = CARTESIAN_POINT ( 'NONE',  ( -5.000000000000000000, 0.0000000000000000000, 0.8750000000000000000 ) ) ;
#8 = APPROVAL_PERSON_ORGANIZATION ( #150, #169, #45 ) ;
#9 = DIRECTION ( 'NONE',  ( 1.000000000000000000, 0.0000000000000000000, 0.0000000000000000000 ) ) ;
#10 = DIRECTION ( 'NONE',  ( 0.0000000000000000000, 0.0000000000000000000, 1.000000000000000000 ) ) ;
#11 = CC_DESIGN_APPROVAL ( #169, ( #6 ) ) ;
#12 = APPROVAL_PERSON_ORGANIZATION ( #132, #3, #77 ) ;
#13 = COORDINATED_UNIVERSAL_TIME_OFFSET ( 5, 0, .BEHIND. ) ;
#14 = VECTOR ( 'NONE', #17, 1000.000000000000000 ) ;
#15 = CC_DESIGN_DATE_AND_TIME_ASSIGNMENT ( #153, #81, ( #6 ) ) ;
#16 = COORDINATED_UNIVERSAL_TIME_OFFSET ( 5, 0, .BEHIND. ) ;
#17 = DIRECTION ( 'NONE',  ( -0.0000000000000000000, -0.0000000000000000000, -1.000000000000000000 ) ) ;
#18 = DIRECTION ( 'NONE',  ( -0.0000000000000000000, -0.0000000000000000000, -1.000000000000000000 ) ) ;
#19 = CARTESIAN_POINT ( 'NONE',  ( 0.0000000000000000000, 0.0000000000000000000, 0.8750000000000000000 ) ) ;
#20 = PERSON_AND_ORGANIZATION_ROLE ( 'classification_officer' ) ;
#21 = PERSON_AND_ORGANIZATION_ROLE ( 'creator' ) ;
#22 = APPLICATION_CONTEXT ( 'configuration controlled 3d designs of mechanical parts and assemblies' ) ;
#23 = APPROVAL ( #140, 'UNSPECIFIED' ) ;
#24 = CALENDAR_DATE ( 2019, 28, 1 ) ;
#25 = LOCAL_TIME ( 14, 1, 37.00000000000000000, #92 ) ;
#26 = PRODUCT_DEFINITION_FORMATION_WITH_SPECIFIED_SOURCE ( 'ANY', '', #156, .NOT_KNOWN. ) ;
#27 = CARTESIAN_POINT ( 'NONE',  ( -5.000000000000000000, 0.0000000000000000000, 0.8750000000000000000 ) ) ;
#28 = EDGE_CURVE ( 'NONE', #144, #160, #80, .T. ) ;
#29 = ADVANCED_FACE ( 'NONE', ( #123 ), #175, .T. ) ;
#30 = DIRECTION ( 'NONE',  ( 0.0000000000000000000, 0.0000000000000000000, 1.000000000000000000 ) ) ;
#31 = DATE_AND_TIME ( #141, #68 ) ;
#32 = APPROVAL_STATUS ( 'not_yet_approved' ) ;
#33 = ADVANCED_FACE ( 'NONE', ( #48 ), #133, .T. ) ;
#34 = EDGE_LOOP ( 'NONE', ( #108, #128 ) ) ;
#35 = SECURITY_CLASSIFICATION_LEVEL ( 'unclassified' ) ;
#36 = COORDINATED_UNIVERSAL_TIME_OFFSET ( 5, 0, .BEHIND. ) ;
#37 = ORIENTED_EDGE ( 'NONE', *, *, #28, .T. ) ;
#38 = CC_DESIGN_PERSON_AND_ORGANIZATION_ASSIGNMENT ( #82, #21, ( #6 ) ) ;
#39 = SHAPE_DEFINITION_REPRESENTATION ( #84, #85 ) ;
#40 = AXIS2_PLACEMENT_3D ( 'NONE', #113, #42, #157 ) ;
#41 = PERSON_AND_ORGANIZATION ( #106, #47 ) ;
#42 = DIRECTION ( 'NONE',  ( 0.0000000000000000000, 0.0000000000000000000, 1.000000000000000000 ) ) ;
#43 = LINE ( 'NONE', #7, #14 ) ;
#44 = CARTESIAN_POINT ( 'NONE',  ( 5.000000000000000000, 6.123233995736766300E-016, -0.8750000000000000000 ) ) ;
#45 = APPROVAL_ROLE ( '' ) ;
#46 = ADVANCED_FACE ( 'NONE', ( #137 ), #58, .F. ) ;
#47 = ORGANIZATION ( 'UNSPECIFIED', 'UNSPECIFIED', '' ) ;
#48 = FACE_OUTER_BOUND ( 'NONE', #172, .T. ) ;
#49 = PERSON_AND_ORGANIZATION ( #106, #47 ) ;
#50 = CC_DESIGN_APPROVAL ( #23, ( #26 ) ) ;
#51 = ORIENTED_EDGE ( 'NONE', *, *, #148, .F. ) ;
#52 = CC_DESIGN_APPROVAL ( #3, ( #134 ) ) ;
#53 = APPROVAL_DATE_TIME ( #127, #3 ) ;
#54 = CARTESIAN_POINT ( 'NONE',  ( 5.000000000000000000, 6.123233995736766300E-016, 0.8750000000000000000 ) ) ;
#55 = EDGE_LOOP ( 'NONE', ( #164, #51 ) ) ;
#56 = DIRECTION ( 'NONE',  ( 0.0000000000000000000, 0.0000000000000000000, 1.000000000000000000 ) ) ;
#57 = CARTESIAN_POINT ( 'NONE',  ( -5.000000000000000000, 0.0000000000000000000, -0.8750000000000000000 ) ) ;
#58 = PLANE ( 'NONE',  #93 ) ;
#59 = CC_DESIGN_PERSON_AND_ORGANIZATION_ASSIGNMENT ( #61, #129, ( #26 ) ) ;
#60 = APPLICATION_PROTOCOL_DEFINITION ( 'international standard', 'config_control_design', 1994, #143 ) ;
#61 = PERSON_AND_ORGANIZATION ( #106, #47 ) ;
#62 = ORIENTED_EDGE ( 'NONE', *, *, #121, .T. ) ;
#63 =( LENGTH_UNIT ( ) NAMED_UNIT ( * ) SI_UNIT ( .MILLI., .METRE. ) );
#64 = VERTEX_POINT ( 'NONE', #27 ) ;
#65 = CARTESIAN_POINT ( 'NONE',  ( 0.0000000000000000000, 0.0000000000000000000, 0.8750000000000000000 ) ) ;
#66 = LOCAL_TIME ( 14, 1, 37.00000000000000000, #16 ) ;
#67 = CLOSED_SHELL ( 'NONE', ( #33, #29, #74, #46 ) ) ;
#68 = LOCAL_TIME ( 14, 1, 37.00000000000000000, #36 ) ;
#69 = CIRCLE ( 'NONE', #125, 5.000000000000000000 ) ;
#70 = ORIENTED_EDGE ( 'NONE', *, *, #121, .F. ) ;
#71 = DIRECTION ( 'NONE',  ( -1.000000000000000000, 0.0000000000000000000, 0.0000000000000000000 ) ) ;
#72 = PLANE ( 'NONE',  #142 ) ;
#73 = DIRECTION ( 'NONE',  ( 0.0000000000000000000, 0.0000000000000000000, 1.000000000000000000 ) ) ;
#74 = ADVANCED_FACE ( 'NONE', ( #79 ), #72, .T. ) ;
#75 = PERSON_AND_ORGANIZATION ( #106, #47 ) ;
#76 =( NAMED_UNIT ( * ) PLANE_ANGLE_UNIT ( ) SI_UNIT ( $, .RADIAN. ) );
#77 = APPROVAL_ROLE ( '' ) ;
#78 = DIRECTION ( 'NONE',  ( 1.000000000000000000, 0.0000000000000000000, 0.0000000000000000000 ) ) ;
#79 = FACE_OUTER_BOUND ( 'NONE', #34, .T. ) ;
#80 = LINE ( 'NONE', #136, #109 ) ;
#81 = DATE_TIME_ROLE ( 'creation_date' ) ;
#82 = PERSON_AND_ORGANIZATION ( #106, #47 ) ;
#83 = CC_DESIGN_PERSON_AND_ORGANIZATION_ASSIGNMENT ( #49, #91, ( #156 ) ) ;
#84 = PRODUCT_DEFINITION_SHAPE ( 'NONE', 'NONE',  #6 ) ;
#85 = ADVANCED_BREP_SHAPE_REPRESENTATION ( 'Web Model 43889_12185', ( #146, #40 ), #131 ) ;
#86 = CALENDAR_DATE ( 2019, 28, 1 ) ;
#87 = CALENDAR_DATE ( 2019, 28, 1 ) ;
#88 = DIRECTION ( 'NONE',  ( 0.0000000000000000000, 0.0000000000000000000, 1.000000000000000000 ) ) ;
#89 = ORIENTED_EDGE ( 'NONE', *, *, #4, .T. ) ;
#90 = ORIENTED_EDGE ( 'NONE', *, *, #2, .F. ) ;
#91 = PERSON_AND_ORGANIZATION_ROLE ( 'design_owner' ) ;
#92 = COORDINATED_UNIVERSAL_TIME_OFFSET ( 5, 0, .BEHIND. ) ;
#93 = AXIS2_PLACEMENT_3D ( 'NONE', #155, #88, #114 ) ;
#94 = VERTEX_POINT ( 'NONE', #57 ) ;
#95 = CC_DESIGN_PERSON_AND_ORGANIZATION_ASSIGNMENT ( #107, #173, ( #26 ) ) ;
#96 = AXIS2_PLACEMENT_3D ( 'NONE', #165, #56, #99 ) ;
#97 = AXIS2_PLACEMENT_3D ( 'NONE', #154, #73, #5 ) ;
#98 = CALENDAR_DATE ( 2019, 28, 1 ) ;
#99 = DIRECTION ( 'NONE',  ( 1.000000000000000000, 0.0000000000000000000, 0.0000000000000000000 ) ) ;
#100 = EDGE_LOOP ( 'NONE', ( #161, #90, #62, #89 ) ) ;
#101 = CARTESIAN_POINT ( 'NONE',  ( 0.0000000000000000000, 0.0000000000000000000, 0.8750000000000000000 ) ) ;
#102 = APPROVAL_STATUS ( 'not_yet_approved' ) ;
#103 = APPROVAL_ROLE ( '' ) ;
#104 = AXIS2_PLACEMENT_3D ( 'NONE', #65, #10, #78 ) ;
#105 = DATE_TIME_ROLE ( 'classification_date' ) ;
#106 = PERSON ( 'UNSPECIFIED', 'UNSPECIFIED', 'UNSPECIFIED', ('UNSPECIFIED'), ('UNSPECIFIED'), ('UNSPECIFIED') ) ;
#107 = PERSON_AND_ORGANIZATION ( #106, #47 ) ;
#108 = ORIENTED_EDGE ( 'NONE', *, *, #2, .T. ) ;
#109 = VECTOR ( 'NONE', #167, 1000.000000000000000 ) ;
#110 = DESIGN_CONTEXT ( 'detailed design', #143, 'design' ) ;
#111 = DATE_AND_TIME ( #98, #25 ) ;
#112 = AXIS2_PLACEMENT_3D ( 'NONE', #116, #139, #71 ) ;
#113 = CARTESIAN_POINT ( 'NONE',  ( 0.0000000000000000000, 0.0000000000000000000, 0.0000000000000000000 ) ) ;
#114 = DIRECTION ( 'NONE',  ( 1.000000000000000000, 0.0000000000000000000, -0.0000000000000000000 ) ) ;
#115 = LOCAL_TIME ( 14, 1, 37.00000000000000000, #13 ) ;
#116 = CARTESIAN_POINT ( 'NONE',  ( 0.0000000000000000000, 0.0000000000000000000, 0.8750000000000000000 ) ) ;
#117 = DIRECTION ( 'NONE',  ( 0.0000000000000000000, 0.0000000000000000000, 1.000000000000000000 ) ) ;
#118 = APPROVAL_DATE_TIME ( #111, #23 ) ;
#119 = APPLICATION_PROTOCOL_DEFINITION ( 'international standard', 'config_control_design', 1994, #22 ) ;
#120 = DATE_AND_TIME ( #87, #115 ) ;
#121 = EDGE_CURVE ( 'NONE', #64, #94, #43, .T. ) ;
#122 = LOCAL_TIME ( 14, 1, 37.00000000000000000, #130 ) ;
#123 = FACE_OUTER_BOUND ( 'NONE', #100, .T. ) ;
#124 = CIRCLE ( 'NONE', #104, 5.000000000000000000 ) ;
#125 = AXIS2_PLACEMENT_3D ( 'NONE', #171, #117, #9 ) ;
#126 = DIRECTION ( 'NONE',  ( 1.000000000000000000, 0.0000000000000000000, -0.0000000000000000000 ) ) ;
#127 = DATE_AND_TIME ( #24, #66 ) ;
#128 = ORIENTED_EDGE ( 'NONE', *, *, #170, .T. ) ;
#129 = PERSON_AND_ORGANIZATION_ROLE ( 'creator' ) ;
#130 = COORDINATED_UNIVERSAL_TIME_OFFSET ( 5, 0, .BEHIND. ) ;
#131 =( GEOMETRIC_REPRESENTATION_CONTEXT ( 3 ) GLOBAL_UNCERTAINTY_ASSIGNED_CONTEXT ( ( #163 ) ) GLOBAL_UNIT_ASSIGNED_CONTEXT ( ( #63, #76, #159 ) ) REPRESENTATION_CONTEXT ( 'NONE', 'WORKASPACE' ) );
#132 = PERSON_AND_ORGANIZATION ( #106, #47 ) ;
#133 = CYLINDRICAL_SURFACE ( 'NONE', #166, 5.000000000000000000 ) ;
#134 = SECURITY_CLASSIFICATION ( '', '', #35 ) ;
#135 = ORIENTED_EDGE ( 'NONE', *, *, #148, .T. ) ;
#136 = CARTESIAN_POINT ( 'NONE',  ( 5.000000000000000000, 6.123233995736766300E-016, 0.8750000000000000000 ) ) ;
#137 = FACE_OUTER_BOUND ( 'NONE', #55, .T. ) ;
#138 = DIRECTION ( 'NONE',  ( -1.000000000000000000, 0.0000000000000000000, 0.0000000000000000000 ) ) ;
#139 = DIRECTION ( 'NONE',  ( -0.0000000000000000000, -0.0000000000000000000, -1.000000000000000000 ) ) ;
#140 = APPROVAL_STATUS ( 'not_yet_approved' ) ;
#141 = CALENDAR_DATE ( 2019, 28, 1 ) ;
#142 = AXIS2_PLACEMENT_3D ( 'NONE', #19, #30, #126 ) ;
#143 = APPLICATION_CONTEXT ( 'configuration controlled 3d designs of mechanical parts and assemblies' ) ;
#144 = VERTEX_POINT ( 'NONE', #54 ) ;
#145 = CIRCLE ( 'NONE', #96, 5.000000000000000000 ) ;
#146 = MANIFOLD_SOLID_BREP ( 'Boss-Extrude1', #67 ) ;
#147 = APPROVAL_PERSON_ORGANIZATION ( #41, #23, #103 ) ;
#148 = EDGE_CURVE ( 'NONE', #160, #94, #69, .T. ) ;
#149 = CC_DESIGN_SECURITY_CLASSIFICATION ( #134, ( #26 ) ) ;
#150 = PERSON_AND_ORGANIZATION ( #106, #47 ) ;
#151 = ORIENTED_EDGE ( 'NONE', *, *, #170, .F. ) ;
#152 = CC_DESIGN_PERSON_AND_ORGANIZATION_ASSIGNMENT ( #75, #20, ( #134 ) ) ;
#153 = DATE_AND_TIME ( #86, #122 ) ;
#154 = CARTESIAN_POINT ( 'NONE',  ( 0.0000000000000000000, 0.0000000000000000000, 0.8750000000000000000 ) ) ;
#155 = CARTESIAN_POINT ( 'NONE',  ( 0.0000000000000000000, 0.0000000000000000000, -0.8750000000000000000 ) ) ;
#156 = PRODUCT ( 'Web Model 43889_12185', 'Web Model 43889_12185', '', ( #168 ) ) ;
#157 = DIRECTION ( 'NONE',  ( 1.000000000000000000, 0.0000000000000000000, 0.0000000000000000000 ) ) ;
#158 = PRODUCT_RELATED_PRODUCT_CATEGORY ( 'detail', '', ( #156 ) ) ;
#159 =( NAMED_UNIT ( * ) SI_UNIT ( $, .STERADIAN. ) SOLID_ANGLE_UNIT ( ) );
#160 = VERTEX_POINT ( 'NONE', #44 ) ;
#161 = ORIENTED_EDGE ( 'NONE', *, *, #28, .F. ) ;
#162 = CC_DESIGN_DATE_AND_TIME_ASSIGNMENT ( #31, #105, ( #134 ) ) ;
#163 = UNCERTAINTY_MEASURE_WITH_UNIT (LENGTH_MEASURE( 1.000000000000000100E-005 ), #63, 'distance_accuracy_value', 'NONE');
#164 = ORIENTED_EDGE ( 'NONE', *, *, #4, .F. ) ;
#165 = CARTESIAN_POINT ( 'NONE',  ( 0.0000000000000000000, 0.0000000000000000000, -0.8750000000000000000 ) ) ;
#166 = AXIS2_PLACEMENT_3D ( 'NONE', #101, #18, #138 ) ;
#167 = DIRECTION ( 'NONE',  ( -0.0000000000000000000, -0.0000000000000000000, -1.000000000000000000 ) ) ;
#168 = MECHANICAL_CONTEXT ( 'NONE', #22, 'mechanical' ) ;
#169 = APPROVAL ( #102, 'UNSPECIFIED' ) ;
#170 = EDGE_CURVE ( 'NONE', #144, #64, #124, .T. ) ;
#171 = CARTESIAN_POINT ( 'NONE',  ( 0.0000000000000000000, 0.0000000000000000000, -0.8750000000000000000 ) ) ;
#172 = EDGE_LOOP ( 'NONE', ( #151, #37, #135, #70 ) ) ;
#173 = PERSON_AND_ORGANIZATION_ROLE ( 'design_supplier' ) ;
#174 = APPROVAL_DATE_TIME ( #120, #169 ) ;
#175 = CYLINDRICAL_SURFACE ( 'NONE', #112, 5.000000000000000000 ) ;
ENDSEC;
END-ISO-10303-21;
