ISO-10303-21;
HEADER;
FILE_DESCRIPTION (( 'STEP AP203' ),
    '1' );
FILE_NAME ('Web Model 68426.STEP',
    '2017-01-31T20:02:35',
    ( '' ),
    ( '' ),
    'SwSTEP 2.0',
    'SolidWorks 2016',
    '' );
FILE_SCHEMA (( 'CONFIG_CONTROL_DESIGN' ));
ENDSEC;

DATA;
#1 = PERSON_AND_ORGANIZATION_ROLE ( 'classification_officer' ) ;
#2 = DIRECTION ( 'NONE',  ( 1.000000000000000000, 0.0000000000000000000, 0.0000000000000000000 ) ) ;
#3 = PERSON_AND_ORGANIZATION ( #125, #43 ) ;
#4 = ORIENTED_EDGE ( 'NONE', *, *, #17, .T. ) ;
#5 = SECURITY_CLASSIFICATION ( '', '', #165 ) ;
#6 = AXIS2_PLACEMENT_3D ( 'NONE', #132, #130, #186 ) ;
#7 = PERSON_AND_ORGANIZATION ( #125, #43 ) ;
#8 = ORIENTED_EDGE ( 'NONE', *, *, #168, .F. ) ;
#9 = CC_DESIGN_PERSON_AND_ORGANIZATION_ASSIGNMENT ( #188, #204, ( #194 ) ) ;
#10 = EDGE_CURVE ( 'NONE', #26, #73, #209, .T. ) ;
#11 = DIRECTION ( 'NONE',  ( -1.369518533665900300E-016, 1.000000000000000000, -0.0000000000000000000 ) ) ;
#12 = DIRECTION ( 'NONE',  ( -0.0000000000000000000, -0.0000000000000000000, -1.000000000000000000 ) ) ;
#13 = LINE ( 'NONE', #58, #24 ) ;
#14 = AXIS2_PLACEMENT_3D ( 'NONE', #74, #40, #94 ) ;
#15 = CARTESIAN_POINT ( 'NONE',  ( 12.50000000000000000, 19.00000000000000400, 3.000000000000000000 ) ) ;
#16 = PLANE ( 'NONE',  #110 ) ;
#17 = EDGE_CURVE ( 'NONE', #122, #73, #213, .T. ) ;
#18 = ORIENTED_EDGE ( 'NONE', *, *, #169, .F. ) ;
#19 = DIRECTION ( 'NONE',  ( 1.000000000000000000, 1.387778780781445400E-016, 0.0000000000000000000 ) ) ;
#20 = CARTESIAN_POINT ( 'NONE',  ( -12.49999999999999500, -19.00000000000000000, 0.0000000000000000000 ) ) ;
#21 = PERSON_AND_ORGANIZATION ( #125, #43 ) ;
#22 =( LENGTH_UNIT ( ) NAMED_UNIT ( * ) SI_UNIT ( .MILLI., .METRE. ) );
#23 = DATE_TIME_ROLE ( 'creation_date' ) ;
#24 = VECTOR ( 'NONE', #90, 1000.000000000000000 ) ;
#25 = LOCAL_TIME ( 15, 2, 35.00000000000000000, #51 ) ;
#26 = VERTEX_POINT ( 'NONE', #31 ) ;
#27 = APPROVAL_DATE_TIME ( #78, #216 ) ;
#28 = ORIENTED_EDGE ( 'NONE', *, *, #168, .T. ) ;
#29 = EDGE_CURVE ( 'NONE', #89, #155, #121, .T. ) ;
#30 = ORIENTED_EDGE ( 'NONE', *, *, #10, .F. ) ;
#31 = CARTESIAN_POINT ( 'NONE',  ( 12.50000000000000000, 19.00000000000000400, 0.0000000000000000000 ) ) ;
#32 = VECTOR ( 'NONE', #232, 1000.000000000000000 ) ;
#33 = EDGE_CURVE ( 'NONE', #155, #122, #48, .T. ) ;
#34 = CARTESIAN_POINT ( 'NONE',  ( 12.50000000000000000, 19.00000000000000400, 3.000000000000000000 ) ) ;
#35 = CARTESIAN_POINT ( 'NONE',  ( 12.50000000000000000, 19.00000000000000400, 3.000000000000000000 ) ) ;
#36 = CARTESIAN_POINT ( 'NONE',  ( -12.49999999999999500, -19.00000000000000000, 3.000000000000000000 ) ) ;
#37 = LINE ( 'NONE', #198, #226 ) ;
#38 = EDGE_LOOP ( 'NONE', ( #133, #158, #97, #101 ) ) ;
#39 = CARTESIAN_POINT ( 'NONE',  ( 12.50000000000000000, 19.00000000000000400, 3.000000000000000000 ) ) ;
#40 = DIRECTION ( 'NONE',  ( 0.0000000000000000000, 0.0000000000000000000, -1.000000000000000000 ) ) ;
#41 = DIRECTION ( 'NONE',  ( 1.369518533665900300E-016, -1.000000000000000000, 0.0000000000000000000 ) ) ;
#42 = CARTESIAN_POINT ( 'NONE',  ( -12.50000000000000000, 19.00000000000000000, 3.000000000000000000 ) ) ;
#43 = ORGANIZATION ( 'UNSPECIFIED', 'UNSPECIFIED', '' ) ;
#44 = DATE_TIME_ROLE ( 'classification_date' ) ;
#45 =( GEOMETRIC_REPRESENTATION_CONTEXT ( 3 ) GLOBAL_UNCERTAINTY_ASSIGNED_CONTEXT ( ( #76 ) ) GLOBAL_UNIT_ASSIGNED_CONTEXT ( ( #22, #181, #134 ) ) REPRESENTATION_CONTEXT ( 'NONE', 'WORKASPACE' ) );
#46 = CLOSED_SHELL ( 'NONE', ( #127, #233, #146, #92, #60, #195 ) ) ;
#47 = EDGE_CURVE ( 'NONE', #155, #26, #54, .T. ) ;
#48 = LINE ( 'NONE', #34, #128 ) ;
#49 = ORIENTED_EDGE ( 'NONE', *, *, #75, .F. ) ;
#50 = CARTESIAN_POINT ( 'NONE',  ( -12.50000000000000000, 19.00000000000000000, 3.000000000000000000 ) ) ;
#51 = COORDINATED_UNIVERSAL_TIME_OFFSET ( 5, 0, .BEHIND. ) ;
#52 = PRODUCT_RELATED_PRODUCT_CATEGORY ( 'detail', '', ( #171 ) ) ;
#53 = COORDINATED_UNIVERSAL_TIME_OFFSET ( 5, 0, .BEHIND. ) ;
#54 = LINE ( 'NONE', #35, #211 ) ;
#55 = PRODUCT_DEFINITION_SHAPE ( 'NONE', 'NONE',  #212 ) ;
#56 = CARTESIAN_POINT ( 'NONE',  ( 12.50000000000000000, 19.00000000000000400, 3.000000000000000000 ) ) ;
#57 = CALENDAR_DATE ( 2017, 31, 1 ) ;
#58 = CARTESIAN_POINT ( 'NONE',  ( -12.49999999999999500, -19.00000000000000000, 3.000000000000000000 ) ) ;
#59 = AXIS2_PLACEMENT_3D ( 'NONE', #98, #62, #2 ) ;
#60 = ADVANCED_FACE ( 'NONE', ( #72 ), #87, .F. ) ;
#61 = LOCAL_TIME ( 15, 2, 35.00000000000000000, #208 ) ;
#62 = DIRECTION ( 'NONE',  ( 0.0000000000000000000, 0.0000000000000000000, 1.000000000000000000 ) ) ;
#63 = CC_DESIGN_PERSON_AND_ORGANIZATION_ASSIGNMENT ( #3, #1, ( #5 ) ) ;
#64 = CALENDAR_DATE ( 2017, 31, 1 ) ;
#65 = FACE_OUTER_BOUND ( 'NONE', #166, .T. ) ;
#66 = VERTEX_POINT ( 'NONE', #103 ) ;
#67 = ORIENTED_EDGE ( 'NONE', *, *, #138, .F. ) ;
#68 = ORIENTED_EDGE ( 'NONE', *, *, #33, .F. ) ;
#69 = DIRECTION ( 'NONE',  ( -1.000000000000000000, -1.387778780781445700E-016, 0.0000000000000000000 ) ) ;
#70 = DIRECTION ( 'NONE',  ( -1.369518533665900100E-016, 1.000000000000000000, 0.0000000000000000000 ) ) ;
#71 = ADVANCED_BREP_SHAPE_REPRESENTATION ( 'Web Model 68426', ( #102, #59 ), #45 ) ;
#72 = FACE_OUTER_BOUND ( 'NONE', #177, .T. ) ;
#73 = VERTEX_POINT ( 'NONE', #126 ) ;
#74 = CARTESIAN_POINT ( 'NONE',  ( -12.49999999999999500, -19.00000000000000000, 0.0000000000000000000 ) ) ;
#75 = EDGE_CURVE ( 'NONE', #229, #81, #140, .T. ) ;
#76 = UNCERTAINTY_MEASURE_WITH_UNIT (LENGTH_MEASURE( 1.000000000000000100E-005 ), #22, 'distance_accuracy_value', 'NONE');
#77 = LINE ( 'NONE', #109, #225 ) ;
#78 = DATE_AND_TIME ( #80, #124 ) ;
#79 = APPROVAL_ROLE ( '' ) ;
#80 = CALENDAR_DATE ( 2017, 31, 1 ) ;
#81 = VERTEX_POINT ( 'NONE', #172 ) ;
#82 = LINE ( 'NONE', #217, #32 ) ;
#83 = DATE_AND_TIME ( #114, #25 ) ;
#84 = ORIENTED_EDGE ( 'NONE', *, *, #47, .T. ) ;
#85 = CARTESIAN_POINT ( 'NONE',  ( 12.50000000000000500, -18.99999999999999600, 3.000000000000000000 ) ) ;
#86 = FACE_OUTER_BOUND ( 'NONE', #38, .T. ) ;
#87 = PLANE ( 'NONE',  #95 ) ;
#88 = COORDINATED_UNIVERSAL_TIME_OFFSET ( 5, 0, .BEHIND. ) ;
#89 = VERTEX_POINT ( 'NONE', #85 ) ;
#90 = DIRECTION ( 'NONE',  ( -0.0000000000000000000, -0.0000000000000000000, -1.000000000000000000 ) ) ;
#91 = DIRECTION ( 'NONE',  ( -1.000000000000000000, -1.369518533665900100E-016, 0.0000000000000000000 ) ) ;
#92 = ADVANCED_FACE ( 'NONE', ( #65 ), #160, .F. ) ;
#93 = DIRECTION ( 'NONE',  ( 1.369518533665900100E-016, -1.000000000000000000, 0.0000000000000000000 ) ) ;
#94 = DIRECTION ( 'NONE',  ( -1.000000000000000000, 0.0000000000000000000, -0.0000000000000000000 ) ) ;
#95 = AXIS2_PLACEMENT_3D ( 'NONE', #36, #105, #175 ) ;
#96 = APPROVAL_DATE_TIME ( #104, #182 ) ;
#97 = ORIENTED_EDGE ( 'NONE', *, *, #29, .F. ) ;
#98 = CARTESIAN_POINT ( 'NONE',  ( 0.0000000000000000000, 0.0000000000000000000, 0.0000000000000000000 ) ) ;
#99 = CALENDAR_DATE ( 2017, 31, 1 ) ;
#100 = FACE_OUTER_BOUND ( 'NONE', #137, .T. ) ;
#101 = ORIENTED_EDGE ( 'NONE', *, *, #187, .T. ) ;
#102 = MANIFOLD_SOLID_BREP ( 'Extrude1', #46 ) ;
#103 = CARTESIAN_POINT ( 'NONE',  ( -12.49999999999999500, -19.00000000000000000, 3.000000000000000000 ) ) ;
#104 = DATE_AND_TIME ( #64, #144 ) ;
#105 = DIRECTION ( 'NONE',  ( 0.0000000000000000000, 0.0000000000000000000, -1.000000000000000000 ) ) ;
#106 = EDGE_LOOP ( 'NONE', ( #149, #145, #164, #201 ) ) ;
#107 = APPROVAL_DATE_TIME ( #156, #167 ) ;
#108 = VECTOR ( 'NONE', #69, 1000.000000000000000 ) ;
#109 = CARTESIAN_POINT ( 'NONE',  ( -12.50000000000000000, 19.00000000000000000, 0.0000000000000000000 ) ) ;
#110 = AXIS2_PLACEMENT_3D ( 'NONE', #200, #162, #70 ) ;
#111 = PLANE ( 'NONE',  #6 ) ;
#112 = COORDINATED_UNIVERSAL_TIME_OFFSET ( 5, 0, .BEHIND. ) ;
#113 = LINE ( 'NONE', #178, #163 ) ;
#114 = CALENDAR_DATE ( 2017, 31, 1 ) ;
#115 = ORIENTED_EDGE ( 'NONE', *, *, #10, .T. ) ;
#116 = PERSON_AND_ORGANIZATION_ROLE ( 'creator' ) ;
#117 = APPROVAL_STATUS ( 'not_yet_approved' ) ;
#118 = LOCAL_TIME ( 15, 2, 35.00000000000000000, #53 ) ;
#119 = ORIENTED_EDGE ( 'NONE', *, *, #33, .T. ) ;
#120 = APPLICATION_CONTEXT ( 'configuration controlled 3d designs of mechanical parts and assemblies' ) ;
#121 = LINE ( 'NONE', #15, #148 ) ;
#122 = VERTEX_POINT ( 'NONE', #42 ) ;
#123 = CC_DESIGN_DATE_AND_TIME_ASSIGNMENT ( #83, #44, ( #5 ) ) ;
#124 = LOCAL_TIME ( 15, 2, 35.00000000000000000, #88 ) ;
#125 = PERSON ( 'UNSPECIFIED', 'UNSPECIFIED', 'UNSPECIFIED', ('UNSPECIFIED'), ('UNSPECIFIED'), ('UNSPECIFIED') ) ;
#126 = CARTESIAN_POINT ( 'NONE',  ( -12.50000000000000000, 19.00000000000000000, 0.0000000000000000000 ) ) ;
#127 = ADVANCED_FACE ( 'NONE', ( #100 ), #16, .F. ) ;
#128 = VECTOR ( 'NONE', #157, 1000.000000000000000 ) ;
#129 = APPROVAL_PERSON_ORGANIZATION ( #173, #216, #151 ) ;
#130 = DIRECTION ( 'NONE',  ( -1.387778780781445400E-016, 1.000000000000000000, 0.0000000000000000000 ) ) ;
#131 = DIRECTION ( 'NONE',  ( -1.369518533665900300E-016, 1.000000000000000000, -0.0000000000000000000 ) ) ;
#132 = CARTESIAN_POINT ( 'NONE',  ( 12.50000000000000500, -18.99999999999999600, 3.000000000000000000 ) ) ;
#133 = ORIENTED_EDGE ( 'NONE', *, *, #138, .T. ) ;
#134 =( NAMED_UNIT ( * ) SI_UNIT ( $, .STERADIAN. ) SOLID_ANGLE_UNIT ( ) );
#135 = APPROVAL_STATUS ( 'not_yet_approved' ) ;
#136 = FACE_OUTER_BOUND ( 'NONE', #159, .T. ) ;
#137 = EDGE_LOOP ( 'NONE', ( #141, #18, #8, #4 ) ) ;
#138 = EDGE_CURVE ( 'NONE', #81, #26, #113, .T. ) ;
#139 = SHAPE_DEFINITION_REPRESENTATION ( #55, #71 ) ;
#140 = LINE ( 'NONE', #228, #180 ) ;
#141 = ORIENTED_EDGE ( 'NONE', *, *, #142, .T. ) ;
#142 = EDGE_CURVE ( 'NONE', #73, #229, #77, .T. ) ;
#143 = PLANE ( 'NONE',  #205 ) ;
#144 = LOCAL_TIME ( 15, 2, 35.00000000000000000, #112 ) ;
#145 = ORIENTED_EDGE ( 'NONE', *, *, #187, .F. ) ;
#146 = ADVANCED_FACE ( 'NONE', ( #86 ), #143, .F. ) ;
#147 = DATE_AND_TIME ( #99, #61 ) ;
#148 = VECTOR ( 'NONE', #11, 1000.000000000000000 ) ;
#149 = ORIENTED_EDGE ( 'NONE', *, *, #75, .T. ) ;
#150 = APPROVAL_ROLE ( '' ) ;
#151 = APPROVAL_ROLE ( '' ) ;
#152 = PERSON_AND_ORGANIZATION ( #125, #43 ) ;
#153 = DESIGN_CONTEXT ( 'detailed design', #120, 'design' ) ;
#154 = LINE ( 'NONE', #161, #184 ) ;
#155 = VERTEX_POINT ( 'NONE', #196 ) ;
#156 = DATE_AND_TIME ( #57, #118 ) ;
#157 = DIRECTION ( 'NONE',  ( -1.000000000000000000, -1.387778780781445700E-016, 0.0000000000000000000 ) ) ;
#158 = ORIENTED_EDGE ( 'NONE', *, *, #47, .F. ) ;
#159 = EDGE_LOOP ( 'NONE', ( #189, #30, #67, #49 ) ) ;
#160 = PLANE ( 'NONE',  #237 ) ;
#161 = CARTESIAN_POINT ( 'NONE',  ( 12.50000000000000500, -18.99999999999999600, 3.000000000000000000 ) ) ;
#162 = DIRECTION ( 'NONE',  ( 1.000000000000000000, 1.369518533665900100E-016, -0.0000000000000000000 ) ) ;
#163 = VECTOR ( 'NONE', #131, 1000.000000000000000 ) ;
#164 = ORIENTED_EDGE ( 'NONE', *, *, #190, .F. ) ;
#165 = SECURITY_CLASSIFICATION_LEVEL ( 'unclassified' ) ;
#166 = EDGE_LOOP ( 'NONE', ( #115, #185, #68, #84 ) ) ;
#167 = APPROVAL ( #117, 'UNSPECIFIED' ) ;
#168 = EDGE_CURVE ( 'NONE', #122, #66, #37, .T. ) ;
#169 = EDGE_CURVE ( 'NONE', #66, #229, #13, .T. ) ;
#170 = DIRECTION ( 'NONE',  ( -0.0000000000000000000, -0.0000000000000000000, -1.000000000000000000 ) ) ;
#171 = PRODUCT ( 'Web Model 68426', 'Web Model 68426', '', ( #219 ) ) ;
#172 = CARTESIAN_POINT ( 'NONE',  ( 12.50000000000000500, -18.99999999999999600, 0.0000000000000000000 ) ) ;
#173 = PERSON_AND_ORGANIZATION ( #125, #43 ) ;
#174 = CC_DESIGN_PERSON_AND_ORGANIZATION_ASSIGNMENT ( #224, #183, ( #171 ) ) ;
#175 = DIRECTION ( 'NONE',  ( -1.000000000000000000, 0.0000000000000000000, -0.0000000000000000000 ) ) ;
#176 = DIRECTION ( 'NONE',  ( 1.387778780781445400E-016, -1.000000000000000000, 0.0000000000000000000 ) ) ;
#177 = EDGE_LOOP ( 'NONE', ( #28, #220, #215, #119 ) ) ;
#178 = CARTESIAN_POINT ( 'NONE',  ( 12.50000000000000000, 19.00000000000000400, 0.0000000000000000000 ) ) ;
#179 = DIRECTION ( 'NONE',  ( -0.0000000000000000000, -0.0000000000000000000, -1.000000000000000000 ) ) ;
#180 = VECTOR ( 'NONE', #202, 1000.000000000000000 ) ;
#181 =( NAMED_UNIT ( * ) PLANE_ANGLE_UNIT ( ) SI_UNIT ( $, .RADIAN. ) );
#182 = APPROVAL ( #207, 'UNSPECIFIED' ) ;
#183 = PERSON_AND_ORGANIZATION_ROLE ( 'design_owner' ) ;
#184 = VECTOR ( 'NONE', #179, 1000.000000000000000 ) ;
#185 = ORIENTED_EDGE ( 'NONE', *, *, #17, .F. ) ;
#186 = DIRECTION ( 'NONE',  ( -1.000000000000000000, -1.387778780781445400E-016, 0.0000000000000000000 ) ) ;
#187 = EDGE_CURVE ( 'NONE', #89, #81, #154, .T. ) ;
#188 = PERSON_AND_ORGANIZATION ( #125, #43 ) ;
#189 = ORIENTED_EDGE ( 'NONE', *, *, #142, .F. ) ;
#190 = EDGE_CURVE ( 'NONE', #66, #89, #82, .T. ) ;
#191 = VECTOR ( 'NONE', #12, 1000.000000000000000 ) ;
#192 = CC_DESIGN_APPROVAL ( #167, ( #194 ) ) ;
#193 = APPROVAL_PERSON_ORGANIZATION ( #7, #167, #150 ) ;
#194 = PRODUCT_DEFINITION_FORMATION_WITH_SPECIFIED_SOURCE ( 'ANY', '', #171, .NOT_KNOWN. ) ;
#195 = ADVANCED_FACE ( 'NONE', ( #136 ), #230, .T. ) ;
#196 = CARTESIAN_POINT ( 'NONE',  ( 12.50000000000000000, 19.00000000000000400, 3.000000000000000000 ) ) ;
#197 = CC_DESIGN_DATE_AND_TIME_ASSIGNMENT ( #147, #23, ( #212 ) ) ;
#198 = CARTESIAN_POINT ( 'NONE',  ( -12.50000000000000000, 19.00000000000000000, 3.000000000000000000 ) ) ;
#199 = PERSON_AND_ORGANIZATION ( #125, #43 ) ;
#200 = CARTESIAN_POINT ( 'NONE',  ( -12.50000000000000000, 19.00000000000000000, 3.000000000000000000 ) ) ;
#201 = ORIENTED_EDGE ( 'NONE', *, *, #169, .T. ) ;
#202 = DIRECTION ( 'NONE',  ( 1.000000000000000000, 1.387778780781445700E-016, -0.0000000000000000000 ) ) ;
#203 = FACE_OUTER_BOUND ( 'NONE', #106, .T. ) ;
#204 = PERSON_AND_ORGANIZATION_ROLE ( 'design_supplier' ) ;
#205 = AXIS2_PLACEMENT_3D ( 'NONE', #39, #91, #93 ) ;
#206 = APPLICATION_CONTEXT ( 'configuration controlled 3d designs of mechanical parts and assemblies' ) ;
#207 = APPROVAL_STATUS ( 'not_yet_approved' ) ;
#208 = COORDINATED_UNIVERSAL_TIME_OFFSET ( 5, 0, .BEHIND. ) ;
#209 = LINE ( 'NONE', #214, #108 ) ;
#210 = APPROVAL_PERSON_ORGANIZATION ( #21, #182, #79 ) ;
#211 = VECTOR ( 'NONE', #170, 1000.000000000000000 ) ;
#212 = PRODUCT_DEFINITION ( 'UNKNOWN', '', #194, #153 ) ;
#213 = LINE ( 'NONE', #50, #191 ) ;
#214 = CARTESIAN_POINT ( 'NONE',  ( 12.50000000000000000, 19.00000000000000400, 0.0000000000000000000 ) ) ;
#215 = ORIENTED_EDGE ( 'NONE', *, *, #29, .T. ) ;
#216 = APPROVAL ( #135, 'UNSPECIFIED' ) ;
#217 = CARTESIAN_POINT ( 'NONE',  ( 12.50000000000000500, -18.99999999999999600, 3.000000000000000000 ) ) ;
#218 = DIRECTION ( 'NONE',  ( 1.369518533665900300E-016, -1.000000000000000000, 0.0000000000000000000 ) ) ;
#219 = MECHANICAL_CONTEXT ( 'NONE', #206, 'mechanical' ) ;
#220 = ORIENTED_EDGE ( 'NONE', *, *, #190, .T. ) ;
#221 = APPLICATION_PROTOCOL_DEFINITION ( 'international standard', 'config_control_design', 1994, #120 ) ;
#222 = CC_DESIGN_APPROVAL ( #182, ( #212 ) ) ;
#223 = APPLICATION_PROTOCOL_DEFINITION ( 'international standard', 'config_control_design', 1994, #206 ) ;
#224 = PERSON_AND_ORGANIZATION ( #125, #43 ) ;
#225 = VECTOR ( 'NONE', #41, 1000.000000000000000 ) ;
#226 = VECTOR ( 'NONE', #218, 1000.000000000000000 ) ;
#227 = CC_DESIGN_APPROVAL ( #216, ( #5 ) ) ;
#228 = CARTESIAN_POINT ( 'NONE',  ( 12.50000000000000500, -18.99999999999999600, 0.0000000000000000000 ) ) ;
#229 = VERTEX_POINT ( 'NONE', #20 ) ;
#230 = PLANE ( 'NONE',  #14 ) ;
#231 = CC_DESIGN_PERSON_AND_ORGANIZATION_ASSIGNMENT ( #152, #116, ( #194 ) ) ;
#232 = DIRECTION ( 'NONE',  ( 1.000000000000000000, 1.387778780781445700E-016, -0.0000000000000000000 ) ) ;
#233 = ADVANCED_FACE ( 'NONE', ( #203 ), #111, .F. ) ;
#234 = CC_DESIGN_SECURITY_CLASSIFICATION ( #5, ( #194 ) ) ;
#235 = CC_DESIGN_PERSON_AND_ORGANIZATION_ASSIGNMENT ( #199, #236, ( #212 ) ) ;
#236 = PERSON_AND_ORGANIZATION_ROLE ( 'creator' ) ;
#237 = AXIS2_PLACEMENT_3D ( 'NONE', #56, #176, #19 ) ;
ENDSEC;
END-ISO-10303-21;
