ISO-10303-21;
HEADER;
FILE_DESCRIPTION (( 'STEP AP203' ),
    '1' );
FILE_NAME ('Web Model 84456_16461.step',
    '2020-11-04T13:22:15',
    ( '' ),
    ( '' ),
    'SwSTEP 2.0',
    'SolidWorks 2018',
    '' );
FILE_SCHEMA (( 'CONFIG_CONTROL_DESIGN' ));
ENDSEC;

DATA;
#1 = CC_DESIGN_PERSON_AND_ORGANIZATION_ASSIGNMENT ( #2, #128, ( #163 ) ) ;
#2 = PERSON_AND_ORGANIZATION ( #37, #38 ) ;
#3 = CALENDAR_DATE ( 2020, 4, 11 ) ;
#4 = CARTESIAN_POINT ( 'NONE',  ( 0.0000000000000000000, 0.0000000000000000000, 0.0000000000000000000 ) ) ;
#5 = CIRCLE ( 'NONE', #56, 15.00000000000000000 ) ;
#6 = EDGE_CURVE ( 'NONE', #54, #46, #162, .T. ) ;
#7 =( NAMED_UNIT ( * ) SI_UNIT ( $, .STERADIAN. ) SOLID_ANGLE_UNIT ( ) );
#8 = CC_DESIGN_PERSON_AND_ORGANIZATION_ASSIGNMENT ( #118, #48, ( #166 ) ) ;
#9 = APPLICATION_PROTOCOL_DEFINITION ( 'international standard', 'config_control_design', 1994, #101 ) ;
#10 = CIRCLE ( 'NONE', #135, 15.00000000000000000 ) ;
#11 = ORIENTED_EDGE ( 'NONE', *, *, #80, .F. ) ;
#12 = DIRECTION ( 'NONE',  ( -0.0000000000000000000, -0.0000000000000000000, -1.000000000000000000 ) ) ;
#13 = CARTESIAN_POINT ( 'NONE',  ( 0.0000000000000000000, 0.0000000000000000000, 4.000000000000000000 ) ) ;
#14 = AXIS2_PLACEMENT_3D ( 'NONE', #109, #108, #55 ) ;
#15 = DATE_AND_TIME ( #3, #33 ) ;
#16 = CLOSED_SHELL ( 'NONE', ( #141, #155, #69, #68 ) ) ;
#17 = DIRECTION ( 'NONE',  ( 0.0000000000000000000, 0.0000000000000000000, 1.000000000000000000 ) ) ;
#18 = CARTESIAN_POINT ( 'NONE',  ( 0.0000000000000000000, 0.0000000000000000000, 4.000000000000000000 ) ) ;
#19 = PERSON_AND_ORGANIZATION_ROLE ( 'creator' ) ;
#20 = DIRECTION ( 'NONE',  ( -0.0000000000000000000, -0.0000000000000000000, -1.000000000000000000 ) ) ;
#21 = MECHANICAL_CONTEXT ( 'NONE', #101, 'mechanical' ) ;
#22 = ORIENTED_EDGE ( 'NONE', *, *, #120, .F. ) ;
#23 = CC_DESIGN_APPROVAL ( #78, ( #163 ) ) ;
#24 = DATE_AND_TIME ( #134, #98 ) ;
#25 = ORIENTED_EDGE ( 'NONE', *, *, #172, .T. ) ;
#26 = PLANE ( 'NONE',  #49 ) ;
#27 = CC_DESIGN_PERSON_AND_ORGANIZATION_ASSIGNMENT ( #158, #19, ( #106 ) ) ;
#28 = CARTESIAN_POINT ( 'NONE',  ( 0.0000000000000000000, 0.0000000000000000000, 4.000000000000000000 ) ) ;
#29 = AXIS2_PLACEMENT_3D ( 'NONE', #28, #79, #94 ) ;
#30 = PERSON_AND_ORGANIZATION ( #37, #38 ) ;
#31 = APPROVAL_STATUS ( 'not_yet_approved' ) ;
#32 = PERSON_AND_ORGANIZATION_ROLE ( 'design_owner' ) ;
#33 = LOCAL_TIME ( 8, 22, 15.00000000000000000, #36 ) ;
#34 = CARTESIAN_POINT ( 'NONE',  ( 0.0000000000000000000, 0.0000000000000000000, 4.000000000000000000 ) ) ;
#35 = PRODUCT_DEFINITION_SHAPE ( 'NONE', 'NONE',  #106 ) ;
#36 = COORDINATED_UNIVERSAL_TIME_OFFSET ( 5, 0, .BEHIND. ) ;
#37 = PERSON ( 'UNSPECIFIED', 'UNSPECIFIED', 'UNSPECIFIED', ('UNSPECIFIED'), ('UNSPECIFIED'), ('UNSPECIFIED') ) ;
#38 = ORGANIZATION ( 'UNSPECIFIED', 'UNSPECIFIED', '' ) ;
#39 = ORIENTED_EDGE ( 'NONE', *, *, #80, .T. ) ;
#40 = PERSON_AND_ORGANIZATION ( #37, #38 ) ;
#41 = COORDINATED_UNIVERSAL_TIME_OFFSET ( 5, 0, .BEHIND. ) ;
#42 = EDGE_LOOP ( 'NONE', ( #22, #159, #25, #39 ) ) ;
#43 = CC_DESIGN_APPROVAL ( #132, ( #166 ) ) ;
#44 = VECTOR ( 'NONE', #12, 1000.000000000000000 ) ;
#45 =( LENGTH_UNIT ( ) NAMED_UNIT ( * ) SI_UNIT ( .MILLI., .METRE. ) );
#46 = VERTEX_POINT ( 'NONE', #111 ) ;
#47 = APPLICATION_CONTEXT ( 'configuration controlled 3d designs of mechanical parts and assemblies' ) ;
#48 = PERSON_AND_ORGANIZATION_ROLE ( 'design_supplier' ) ;
#49 = AXIS2_PLACEMENT_3D ( 'NONE', #4, #17, #139 ) ;
#50 = MANIFOLD_SOLID_BREP ( 'Extrude1', #16 ) ;
#51 = PERSON_AND_ORGANIZATION ( #37, #38 ) ;
#52 = FACE_OUTER_BOUND ( 'NONE', #107, .T. ) ;
#53 = ADVANCED_BREP_SHAPE_REPRESENTATION ( 'Web Model 84456_16461', ( #50, #146 ), #112 ) ;
#54 = VERTEX_POINT ( 'NONE', #93 ) ;
#55 = DIRECTION ( 'NONE',  ( 1.000000000000000000, 0.0000000000000000000, 0.0000000000000000000 ) ) ;
#56 = AXIS2_PLACEMENT_3D ( 'NONE', #34, #57, #72 ) ;
#57 = DIRECTION ( 'NONE',  ( 0.0000000000000000000, 0.0000000000000000000, 1.000000000000000000 ) ) ;
#58 = CARTESIAN_POINT ( 'NONE',  ( 0.0000000000000000000, 0.0000000000000000000, 0.0000000000000000000 ) ) ;
#59 = DIRECTION ( 'NONE',  ( 1.000000000000000000, 0.0000000000000000000, 0.0000000000000000000 ) ) ;
#60 = LINE ( 'NONE', #113, #44 ) ;
#61 = ORIENTED_EDGE ( 'NONE', *, *, #172, .F. ) ;
#62 = CYLINDRICAL_SURFACE ( 'NONE', #150, 15.00000000000000000 ) ;
#63 = APPROVAL_DATE_TIME ( #24, #78 ) ;
#64 = ORIENTED_EDGE ( 'NONE', *, *, #91, .F. ) ;
#65 = DESIGN_CONTEXT ( 'detailed design', #47, 'design' ) ;
#66 = SHAPE_DEFINITION_REPRESENTATION ( #35, #53 ) ;
#67 = UNCERTAINTY_MEASURE_WITH_UNIT (LENGTH_MEASURE( 1.000000000000000082E-05 ), #45, 'distance_accuracy_value', 'NONE');
#68 = ADVANCED_FACE ( 'NONE', ( #173 ), #26, .F. ) ;
#69 = ADVANCED_FACE ( 'NONE', ( #136 ), #124, .T. ) ;
#70 = DIRECTION ( 'NONE',  ( 0.0000000000000000000, 0.0000000000000000000, 1.000000000000000000 ) ) ;
#71 = DATE_TIME_ROLE ( 'classification_date' ) ;
#72 = DIRECTION ( 'NONE',  ( 1.000000000000000000, 0.0000000000000000000, 0.0000000000000000000 ) ) ;
#73 = APPROVAL_DATE_TIME ( #15, #132 ) ;
#74 = CC_DESIGN_SECURITY_CLASSIFICATION ( #163, ( #166 ) ) ;
#75 = CALENDAR_DATE ( 2020, 4, 11 ) ;
#76 = LINE ( 'NONE', #123, #167 ) ;
#77 = ORIENTED_EDGE ( 'NONE', *, *, #174, .T. ) ;
#78 = APPROVAL ( #169, 'UNSPECIFIED' ) ;
#79 = DIRECTION ( 'NONE',  ( 0.0000000000000000000, 0.0000000000000000000, 1.000000000000000000 ) ) ;
#80 = EDGE_CURVE ( 'NONE', #46, #54, #10, .T. ) ;
#81 =( NAMED_UNIT ( * ) PLANE_ANGLE_UNIT ( ) SI_UNIT ( $, .RADIAN. ) );
#82 = LOCAL_TIME ( 8, 22, 15.00000000000000000, #105 ) ;
#83 = DIRECTION ( 'NONE',  ( -1.000000000000000000, 0.0000000000000000000, 0.0000000000000000000 ) ) ;
#84 = APPROVAL_ROLE ( '' ) ;
#85 = CARTESIAN_POINT ( 'NONE',  ( 0.0000000000000000000, 0.0000000000000000000, 4.000000000000000000 ) ) ;
#86 = PRODUCT ( 'Web Model 84456_16461', 'Web Model 84456_16461', '', ( #21 ) ) ;
#87 = DATE_AND_TIME ( #126, #82 ) ;
#88 = VERTEX_POINT ( 'NONE', #92 ) ;
#89 = CC_DESIGN_PERSON_AND_ORGANIZATION_ASSIGNMENT ( #30, #32, ( #86 ) ) ;
#90 = ORIENTED_EDGE ( 'NONE', *, *, #120, .T. ) ;
#91 = EDGE_CURVE ( 'NONE', #153, #88, #5, .T. ) ;
#92 = CARTESIAN_POINT ( 'NONE',  ( -15.00000000000000000, 0.0000000000000000000, 4.000000000000000000 ) ) ;
#93 = CARTESIAN_POINT ( 'NONE',  ( 15.00000000000000000, 1.836970198721029589E-15, 0.0000000000000000000 ) ) ;
#94 = DIRECTION ( 'NONE',  ( 1.000000000000000000, 0.0000000000000000000, -0.0000000000000000000 ) ) ;
#95 = PERSON_AND_ORGANIZATION ( #37, #38 ) ;
#96 = CC_DESIGN_DATE_AND_TIME_ASSIGNMENT ( #87, #114, ( #106 ) ) ;
#97 = PERSON_AND_ORGANIZATION_ROLE ( 'creator' ) ;
#98 = LOCAL_TIME ( 8, 22, 15.00000000000000000, #41 ) ;
#99 = DIRECTION ( 'NONE',  ( 1.000000000000000000, 0.0000000000000000000, 0.0000000000000000000 ) ) ;
#100 = ORIENTED_EDGE ( 'NONE', *, *, #91, .T. ) ;
#101 = APPLICATION_CONTEXT ( 'configuration controlled 3d designs of mechanical parts and assemblies' ) ;
#102 = DATE_AND_TIME ( #75, #171 ) ;
#103 = AXIS2_PLACEMENT_3D ( 'NONE', #13, #70, #127 ) ;
#104 = DATE_AND_TIME ( #144, #115 ) ;
#105 = COORDINATED_UNIVERSAL_TIME_OFFSET ( 5, 0, .BEHIND. ) ;
#106 = PRODUCT_DEFINITION ( 'UNKNOWN', '', #166, #65 ) ;
#107 = EDGE_LOOP ( 'NONE', ( #64, #90, #137, #61 ) ) ;
#108 = DIRECTION ( 'NONE',  ( 0.0000000000000000000, 0.0000000000000000000, 1.000000000000000000 ) ) ;
#109 = CARTESIAN_POINT ( 'NONE',  ( 0.0000000000000000000, 0.0000000000000000000, 0.0000000000000000000 ) ) ;
#110 = APPROVAL_PERSON_ORGANIZATION ( #51, #132, #129 ) ;
#111 = CARTESIAN_POINT ( 'NONE',  ( -15.00000000000000000, 0.0000000000000000000, 0.0000000000000000000 ) ) ;
#112 =( GEOMETRIC_REPRESENTATION_CONTEXT ( 3 ) GLOBAL_UNCERTAINTY_ASSIGNED_CONTEXT ( ( #67 ) ) GLOBAL_UNIT_ASSIGNED_CONTEXT ( ( #45, #81, #7 ) ) REPRESENTATION_CONTEXT ( 'NONE', 'WORKASPACE' ) );
#113 = CARTESIAN_POINT ( 'NONE',  ( -15.00000000000000000, 0.0000000000000000000, 4.000000000000000000 ) ) ;
#114 = DATE_TIME_ROLE ( 'creation_date' ) ;
#115 = LOCAL_TIME ( 8, 22, 15.00000000000000000, #133 ) ;
#116 = APPROVAL_STATUS ( 'not_yet_approved' ) ;
#117 = CC_DESIGN_DATE_AND_TIME_ASSIGNMENT ( #104, #71, ( #163 ) ) ;
#118 = PERSON_AND_ORGANIZATION ( #37, #38 ) ;
#119 = ORIENTED_EDGE ( 'NONE', *, *, #6, .F. ) ;
#120 = EDGE_CURVE ( 'NONE', #153, #54, #76, .T. ) ;
#121 = APPROVAL_PERSON_ORGANIZATION ( #95, #148, #160 ) ;
#122 = AXIS2_PLACEMENT_3D ( 'NONE', #85, #168, #83 ) ;
#123 = CARTESIAN_POINT ( 'NONE',  ( 15.00000000000000000, 1.836970198721029589E-15, 4.000000000000000000 ) ) ;
#124 = PLANE ( 'NONE',  #29 ) ;
#125 = PRODUCT_RELATED_PRODUCT_CATEGORY ( 'detail', '', ( #86 ) ) ;
#126 = CALENDAR_DATE ( 2020, 4, 11 ) ;
#127 = DIRECTION ( 'NONE',  ( 1.000000000000000000, 0.0000000000000000000, 0.0000000000000000000 ) ) ;
#128 = PERSON_AND_ORGANIZATION_ROLE ( 'classification_officer' ) ;
#129 = APPROVAL_ROLE ( '' ) ;
#130 = CIRCLE ( 'NONE', #103, 15.00000000000000000 ) ;
#131 = CYLINDRICAL_SURFACE ( 'NONE', #122, 15.00000000000000000 ) ;
#132 = APPROVAL ( #31, 'UNSPECIFIED' ) ;
#133 = COORDINATED_UNIVERSAL_TIME_OFFSET ( 5, 0, .BEHIND. ) ;
#134 = CALENDAR_DATE ( 2020, 4, 11 ) ;
#135 = AXIS2_PLACEMENT_3D ( 'NONE', #165, #161, #59 ) ;
#136 = FACE_OUTER_BOUND ( 'NONE', #151, .T. ) ;
#137 = ORIENTED_EDGE ( 'NONE', *, *, #6, .T. ) ;
#138 = DIRECTION ( 'NONE',  ( -0.0000000000000000000, -0.0000000000000000000, -1.000000000000000000 ) ) ;
#139 = DIRECTION ( 'NONE',  ( 1.000000000000000000, 0.0000000000000000000, -0.0000000000000000000 ) ) ;
#140 = APPROVAL_PERSON_ORGANIZATION ( #40, #78, #84 ) ;
#141 = ADVANCED_FACE ( 'NONE', ( #52 ), #62, .T. ) ;
#142 = DIRECTION ( 'NONE',  ( 0.0000000000000000000, 0.0000000000000000000, 1.000000000000000000 ) ) ;
#143 = CC_DESIGN_PERSON_AND_ORGANIZATION_ASSIGNMENT ( #152, #97, ( #166 ) ) ;
#144 = CALENDAR_DATE ( 2020, 4, 11 ) ;
#145 = SECURITY_CLASSIFICATION_LEVEL ( 'unclassified' ) ;
#146 = AXIS2_PLACEMENT_3D ( 'NONE', #58, #142, #99 ) ;
#147 = FACE_OUTER_BOUND ( 'NONE', #42, .T. ) ;
#148 = APPROVAL ( #116, 'UNSPECIFIED' ) ;
#149 = APPROVAL_DATE_TIME ( #102, #148 ) ;
#150 = AXIS2_PLACEMENT_3D ( 'NONE', #18, #20, #156 ) ;
#151 = EDGE_LOOP ( 'NONE', ( #77, #100 ) ) ;
#152 = PERSON_AND_ORGANIZATION ( #37, #38 ) ;
#153 = VERTEX_POINT ( 'NONE', #170 ) ;
#154 = CC_DESIGN_APPROVAL ( #148, ( #106 ) ) ;
#155 = ADVANCED_FACE ( 'NONE', ( #147 ), #131, .T. ) ;
#156 = DIRECTION ( 'NONE',  ( -1.000000000000000000, 0.0000000000000000000, 0.0000000000000000000 ) ) ;
#157 = APPLICATION_PROTOCOL_DEFINITION ( 'international standard', 'config_control_design', 1994, #47 ) ;
#158 = PERSON_AND_ORGANIZATION ( #37, #38 ) ;
#159 = ORIENTED_EDGE ( 'NONE', *, *, #174, .F. ) ;
#160 = APPROVAL_ROLE ( '' ) ;
#161 = DIRECTION ( 'NONE',  ( 0.0000000000000000000, 0.0000000000000000000, 1.000000000000000000 ) ) ;
#162 = CIRCLE ( 'NONE', #14, 15.00000000000000000 ) ;
#163 = SECURITY_CLASSIFICATION ( '', '', #145 ) ;
#164 = EDGE_LOOP ( 'NONE', ( #11, #119 ) ) ;
#165 = CARTESIAN_POINT ( 'NONE',  ( 0.0000000000000000000, 0.0000000000000000000, 0.0000000000000000000 ) ) ;
#166 = PRODUCT_DEFINITION_FORMATION_WITH_SPECIFIED_SOURCE ( 'ANY', '', #86, .NOT_KNOWN. ) ;
#167 = VECTOR ( 'NONE', #138, 1000.000000000000000 ) ;
#168 = DIRECTION ( 'NONE',  ( -0.0000000000000000000, -0.0000000000000000000, -1.000000000000000000 ) ) ;
#169 = APPROVAL_STATUS ( 'not_yet_approved' ) ;
#170 = CARTESIAN_POINT ( 'NONE',  ( 15.00000000000000000, 1.836970198721029589E-15, 4.000000000000000000 ) ) ;
#171 = LOCAL_TIME ( 8, 22, 15.00000000000000000, #175 ) ;
#172 = EDGE_CURVE ( 'NONE', #88, #46, #60, .T. ) ;
#173 = FACE_OUTER_BOUND ( 'NONE', #164, .T. ) ;
#174 = EDGE_CURVE ( 'NONE', #88, #153, #130, .T. ) ;
#175 = COORDINATED_UNIVERSAL_TIME_OFFSET ( 5, 0, .BEHIND. ) ;
ENDSEC;
END-ISO-10303-21;
