ISO-10303-21;
HEADER;
FILE_DESCRIPTION (( 'STEP AP203' ),
    '1' );
FILE_NAME ('Web Model 43366_15990.step',
    '2020-10-21T18:19:44',
    ( '' ),
    ( '' ),
    'SwSTEP 2.0',
    'SolidWorks 2018',
    '' );
FILE_SCHEMA (( 'CONFIG_CONTROL_DESIGN' ));
ENDSEC;

DATA;
#1 = CC_DESIGN_SECURITY_CLASSIFICATION ( #33, ( #55 ) ) ;
#2 = CIRCLE ( 'NONE', #34, 5.000000000000000000 ) ;
#3 = AXIS2_PLACEMENT_3D ( 'NONE', #40, #62, #114 ) ;
#4 = COORDINATED_UNIVERSAL_TIME_OFFSET ( 5, 0, .BEHIND. ) ;
#5 = VERTEX_POINT ( 'NONE', #76 ) ;
#6 = DIRECTION ( 'NONE',  ( 1.000000000000000000, 0.0000000000000000000, -0.0000000000000000000 ) ) ;
#7 = APPROVAL ( #95, 'UNSPECIFIED' ) ;
#8 = EDGE_LOOP ( 'NONE', ( #109, #39 ) ) ;
#9 = APPLICATION_PROTOCOL_DEFINITION ( 'international standard', 'config_control_design', 1994, #88 ) ;
#10 = SECURITY_CLASSIFICATION_LEVEL ( 'unclassified' ) ;
#11 = DATE_AND_TIME ( #58, #120 ) ;
#12 = PRODUCT_DEFINITION ( 'UNKNOWN', '', #55, #17 ) ;
#13 = ORIENTED_EDGE ( 'NONE', *, *, #159, .F. ) ;
#14 = CARTESIAN_POINT ( 'NONE',  ( 5.000000000000000000, 6.123233995736766282E-16, 0.0000000000000000000 ) ) ;
#15 = ADVANCED_FACE ( 'NONE', ( #133 ), #175, .T. ) ;
#16 = CC_DESIGN_PERSON_AND_ORGANIZATION_ASSIGNMENT ( #160, #126, ( #12 ) ) ;
#17 = DESIGN_CONTEXT ( 'detailed design', #88, 'design' ) ;
#18 = VECTOR ( 'NONE', #69, 1000.000000000000000 ) ;
#19 = ADVANCED_FACE ( 'NONE', ( #81 ), #63, .T. ) ;
#20 = APPROVAL ( #100, 'UNSPECIFIED' ) ;
#21 = PERSON_AND_ORGANIZATION ( #86, #52 ) ;
#22 = VERTEX_POINT ( 'NONE', #74 ) ;
#23 = CC_DESIGN_DATE_AND_TIME_ASSIGNMENT ( #11, #51, ( #12 ) ) ;
#24 = PERSON_AND_ORGANIZATION ( #86, #52 ) ;
#25 = EDGE_CURVE ( 'NONE', #5, #54, #146, .T. ) ;
#26 = APPROVAL_ROLE ( '' ) ;
#27 = DIRECTION ( 'NONE',  ( 1.000000000000000000, 0.0000000000000000000, -0.0000000000000000000 ) ) ;
#28 = DIRECTION ( 'NONE',  ( 1.000000000000000000, 0.0000000000000000000, 0.0000000000000000000 ) ) ;
#29 = EDGE_CURVE ( 'NONE', #113, #22, #2, .T. ) ;
#30 = PERSON_AND_ORGANIZATION ( #86, #52 ) ;
#31 = EDGE_LOOP ( 'NONE', ( #172, #36, #94, #73 ) ) ;
#32 = APPROVAL_PERSON_ORGANIZATION ( #150, #20, #26 ) ;
#33 = SECURITY_CLASSIFICATION ( '', '', #10 ) ;
#34 = AXIS2_PLACEMENT_3D ( 'NONE', #143, #145, #28 ) ;
#35 = CALENDAR_DATE ( 2020, 21, 10 ) ;
#36 = ORIENTED_EDGE ( 'NONE', *, *, #25, .F. ) ;
#37 = AXIS2_PLACEMENT_3D ( 'NONE', #41, #131, #102 ) ;
#38 = CIRCLE ( 'NONE', #165, 5.000000000000000000 ) ;
#39 = ORIENTED_EDGE ( 'NONE', *, *, #149, .T. ) ;
#40 = CARTESIAN_POINT ( 'NONE',  ( 0.0000000000000000000, 0.0000000000000000000, 1.000000000000000000 ) ) ;
#41 = CARTESIAN_POINT ( 'NONE',  ( 0.0000000000000000000, 0.0000000000000000000, 1.000000000000000000 ) ) ;
#42 = DIRECTION ( 'NONE',  ( -0.0000000000000000000, -0.0000000000000000000, -1.000000000000000000 ) ) ;
#43 = CARTESIAN_POINT ( 'NONE',  ( -5.000000000000000000, 0.0000000000000000000, 1.000000000000000000 ) ) ;
#44 = FACE_OUTER_BOUND ( 'NONE', #144, .T. ) ;
#45 = ADVANCED_FACE ( 'NONE', ( #44 ), #118, .F. ) ;
#46 = APPROVAL_PERSON_ORGANIZATION ( #30, #7, #93 ) ;
#47 = ORIENTED_EDGE ( 'NONE', *, *, #168, .T. ) ;
#48 =( GEOMETRIC_REPRESENTATION_CONTEXT ( 3 ) GLOBAL_UNCERTAINTY_ASSIGNED_CONTEXT ( ( #87 ) ) GLOBAL_UNIT_ASSIGNED_CONTEXT ( ( #79, #169, #130 ) ) REPRESENTATION_CONTEXT ( 'NONE', 'WORKASPACE' ) );
#49 = ORIENTED_EDGE ( 'NONE', *, *, #29, .T. ) ;
#50 = APPROVAL ( #140, 'UNSPECIFIED' ) ;
#51 = DATE_TIME_ROLE ( 'creation_date' ) ;
#52 = ORGANIZATION ( 'UNSPECIFIED', 'UNSPECIFIED', '' ) ;
#53 = DIRECTION ( 'NONE',  ( 1.000000000000000000, 0.0000000000000000000, 0.0000000000000000000 ) ) ;
#54 = VERTEX_POINT ( 'NONE', #170 ) ;
#55 = PRODUCT_DEFINITION_FORMATION_WITH_SPECIFIED_SOURCE ( 'ANY', '', #64, .NOT_KNOWN. ) ;
#56 = LOCAL_TIME ( 14, 19, 44.00000000000000000, #174 ) ;
#57 = CC_DESIGN_PERSON_AND_ORGANIZATION_ASSIGNMENT ( #155, #78, ( #55 ) ) ;
#58 = CALENDAR_DATE ( 2020, 21, 10 ) ;
#59 = ADVANCED_BREP_SHAPE_REPRESENTATION ( 'Web Model 43366_15990', ( #148, #156 ), #48 ) ;
#60 = APPROVAL_DATE_TIME ( #103, #7 ) ;
#61 = CC_DESIGN_APPROVAL ( #20, ( #12 ) ) ;
#62 = DIRECTION ( 'NONE',  ( -0.0000000000000000000, -0.0000000000000000000, -1.000000000000000000 ) ) ;
#63 = PLANE ( 'NONE',  #110 ) ;
#64 = PRODUCT ( 'Web Model 43366_15990', 'Web Model 43366_15990', '', ( #77 ) ) ;
#65 = CC_DESIGN_DATE_AND_TIME_ASSIGNMENT ( #66, #107, ( #33 ) ) ;
#66 = DATE_AND_TIME ( #80, #171 ) ;
#67 = APPROVAL_ROLE ( '' ) ;
#68 = CARTESIAN_POINT ( 'NONE',  ( 0.0000000000000000000, 0.0000000000000000000, 0.0000000000000000000 ) ) ;
#69 = DIRECTION ( 'NONE',  ( -0.0000000000000000000, -0.0000000000000000000, -1.000000000000000000 ) ) ;
#70 = APPROVAL_DATE_TIME ( #121, #20 ) ;
#71 = CC_DESIGN_APPROVAL ( #50, ( #55 ) ) ;
#72 = ADVANCED_FACE ( 'NONE', ( #75 ), #99, .T. ) ;
#73 = ORIENTED_EDGE ( 'NONE', *, *, #159, .T. ) ;
#74 = CARTESIAN_POINT ( 'NONE',  ( -5.000000000000000000, 0.0000000000000000000, 0.0000000000000000000 ) ) ;
#75 = FACE_OUTER_BOUND ( 'NONE', #31, .T. ) ;
#76 = CARTESIAN_POINT ( 'NONE',  ( -5.000000000000000000, 0.0000000000000000000, 1.000000000000000000 ) ) ;
#77 = MECHANICAL_CONTEXT ( 'NONE', #173, 'mechanical' ) ;
#78 = PERSON_AND_ORGANIZATION_ROLE ( 'design_supplier' ) ;
#79 =( LENGTH_UNIT ( ) NAMED_UNIT ( * ) SI_UNIT ( .MILLI., .METRE. ) );
#80 = CALENDAR_DATE ( 2020, 21, 10 ) ;
#81 = FACE_OUTER_BOUND ( 'NONE', #8, .T. ) ;
#82 = PRODUCT_RELATED_PRODUCT_CATEGORY ( 'detail', '', ( #64 ) ) ;
#83 = VECTOR ( 'NONE', #42, 1000.000000000000000 ) ;
#84 = AXIS2_PLACEMENT_3D ( 'NONE', #115, #141, #158 ) ;
#85 = APPROVAL_DATE_TIME ( #164, #50 ) ;
#86 = PERSON ( 'UNSPECIFIED', 'UNSPECIFIED', 'UNSPECIFIED', ('UNSPECIFIED'), ('UNSPECIFIED'), ('UNSPECIFIED') ) ;
#87 = UNCERTAINTY_MEASURE_WITH_UNIT (LENGTH_MEASURE( 1.000000000000000082E-05 ), #79, 'distance_accuracy_value', 'NONE');
#88 = APPLICATION_CONTEXT ( 'configuration controlled 3d designs of mechanical parts and assemblies' ) ;
#89 = PRODUCT_DEFINITION_SHAPE ( 'NONE', 'NONE',  #12 ) ;
#90 = CARTESIAN_POINT ( 'NONE',  ( 0.0000000000000000000, 0.0000000000000000000, 0.0000000000000000000 ) ) ;
#91 = DIRECTION ( 'NONE',  ( 1.000000000000000000, 0.0000000000000000000, 0.0000000000000000000 ) ) ;
#92 = COORDINATED_UNIVERSAL_TIME_OFFSET ( 5, 0, .BEHIND. ) ;
#93 = APPROVAL_ROLE ( '' ) ;
#94 = ORIENTED_EDGE ( 'NONE', *, *, #119, .T. ) ;
#95 = APPROVAL_STATUS ( 'not_yet_approved' ) ;
#96 = COORDINATED_UNIVERSAL_TIME_OFFSET ( 5, 0, .BEHIND. ) ;
#97 = ORIENTED_EDGE ( 'NONE', *, *, #149, .F. ) ;
#98 = LINE ( 'NONE', #104, #18 ) ;
#99 = CYLINDRICAL_SURFACE ( 'NONE', #37, 5.000000000000000000 ) ;
#100 = APPROVAL_STATUS ( 'not_yet_approved' ) ;
#101 = DIRECTION ( 'NONE',  ( 0.0000000000000000000, 0.0000000000000000000, 1.000000000000000000 ) ) ;
#102 = DIRECTION ( 'NONE',  ( -1.000000000000000000, 0.0000000000000000000, 0.0000000000000000000 ) ) ;
#103 = DATE_AND_TIME ( #142, #138 ) ;
#104 = CARTESIAN_POINT ( 'NONE',  ( 5.000000000000000000, 6.123233995736766282E-16, 1.000000000000000000 ) ) ;
#105 = CARTESIAN_POINT ( 'NONE',  ( 0.0000000000000000000, 0.0000000000000000000, 0.0000000000000000000 ) ) ;
#106 = CC_DESIGN_PERSON_AND_ORGANIZATION_ASSIGNMENT ( #132, #167, ( #33 ) ) ;
#107 = DATE_TIME_ROLE ( 'classification_date' ) ;
#108 = SHAPE_DEFINITION_REPRESENTATION ( #89, #59 ) ;
#109 = ORIENTED_EDGE ( 'NONE', *, *, #25, .T. ) ;
#110 = AXIS2_PLACEMENT_3D ( 'NONE', #151, #124, #6 ) ;
#111 = LOCAL_TIME ( 14, 19, 44.00000000000000000, #163 ) ;
#112 = CLOSED_SHELL ( 'NONE', ( #15, #72, #19, #45 ) ) ;
#113 = VERTEX_POINT ( 'NONE', #14 ) ;
#114 = DIRECTION ( 'NONE',  ( -1.000000000000000000, 0.0000000000000000000, 0.0000000000000000000 ) ) ;
#115 = CARTESIAN_POINT ( 'NONE',  ( 0.0000000000000000000, 0.0000000000000000000, 1.000000000000000000 ) ) ;
#116 = APPROVAL_PERSON_ORGANIZATION ( #24, #50, #67 ) ;
#117 = DIRECTION ( 'NONE',  ( 0.0000000000000000000, 0.0000000000000000000, 1.000000000000000000 ) ) ;
#118 = PLANE ( 'NONE',  #123 ) ;
#119 = EDGE_CURVE ( 'NONE', #5, #22, #137, .T. ) ;
#120 = LOCAL_TIME ( 14, 19, 44.00000000000000000, #92 ) ;
#121 = DATE_AND_TIME ( #35, #111 ) ;
#122 = PERSON_AND_ORGANIZATION ( #86, #52 ) ;
#123 = AXIS2_PLACEMENT_3D ( 'NONE', #90, #139, #27 ) ;
#124 = DIRECTION ( 'NONE',  ( 0.0000000000000000000, 0.0000000000000000000, 1.000000000000000000 ) ) ;
#125 = CIRCLE ( 'NONE', #135, 5.000000000000000000 ) ;
#126 = PERSON_AND_ORGANIZATION_ROLE ( 'creator' ) ;
#127 = ORIENTED_EDGE ( 'NONE', *, *, #29, .F. ) ;
#128 = CARTESIAN_POINT ( 'NONE',  ( 0.0000000000000000000, 0.0000000000000000000, 1.000000000000000000 ) ) ;
#129 = DIRECTION ( 'NONE',  ( 0.0000000000000000000, 0.0000000000000000000, 1.000000000000000000 ) ) ;
#130 =( NAMED_UNIT ( * ) SI_UNIT ( $, .STERADIAN. ) SOLID_ANGLE_UNIT ( ) );
#131 = DIRECTION ( 'NONE',  ( -0.0000000000000000000, -0.0000000000000000000, -1.000000000000000000 ) ) ;
#132 = PERSON_AND_ORGANIZATION ( #86, #52 ) ;
#133 = FACE_OUTER_BOUND ( 'NONE', #134, .T. ) ;
#134 = EDGE_LOOP ( 'NONE', ( #97, #47, #49, #162 ) ) ;
#135 = AXIS2_PLACEMENT_3D ( 'NONE', #128, #117, #91 ) ;
#136 = CALENDAR_DATE ( 2020, 21, 10 ) ;
#137 = LINE ( 'NONE', #43, #83 ) ;
#138 = LOCAL_TIME ( 14, 19, 44.00000000000000000, #4 ) ;
#139 = DIRECTION ( 'NONE',  ( 0.0000000000000000000, 0.0000000000000000000, 1.000000000000000000 ) ) ;
#140 = APPROVAL_STATUS ( 'not_yet_approved' ) ;
#141 = DIRECTION ( 'NONE',  ( 0.0000000000000000000, 0.0000000000000000000, 1.000000000000000000 ) ) ;
#142 = CALENDAR_DATE ( 2020, 21, 10 ) ;
#143 = CARTESIAN_POINT ( 'NONE',  ( 0.0000000000000000000, 0.0000000000000000000, 0.0000000000000000000 ) ) ;
#144 = EDGE_LOOP ( 'NONE', ( #13, #127 ) ) ;
#145 = DIRECTION ( 'NONE',  ( 0.0000000000000000000, 0.0000000000000000000, 1.000000000000000000 ) ) ;
#146 = CIRCLE ( 'NONE', #84, 5.000000000000000000 ) ;
#147 = CC_DESIGN_APPROVAL ( #7, ( #33 ) ) ;
#148 = MANIFOLD_SOLID_BREP ( 'Boss-Extrude1', #112 ) ;
#149 = EDGE_CURVE ( 'NONE', #54, #5, #125, .T. ) ;
#150 = PERSON_AND_ORGANIZATION ( #86, #52 ) ;
#151 = CARTESIAN_POINT ( 'NONE',  ( 0.0000000000000000000, 0.0000000000000000000, 1.000000000000000000 ) ) ;
#152 = CC_DESIGN_PERSON_AND_ORGANIZATION_ASSIGNMENT ( #122, #166, ( #64 ) ) ;
#153 = APPLICATION_PROTOCOL_DEFINITION ( 'international standard', 'config_control_design', 1994, #173 ) ;
#154 = PERSON_AND_ORGANIZATION_ROLE ( 'creator' ) ;
#155 = PERSON_AND_ORGANIZATION ( #86, #52 ) ;
#156 = AXIS2_PLACEMENT_3D ( 'NONE', #68, #129, #53 ) ;
#157 = DIRECTION ( 'NONE',  ( 1.000000000000000000, 0.0000000000000000000, 0.0000000000000000000 ) ) ;
#158 = DIRECTION ( 'NONE',  ( 1.000000000000000000, 0.0000000000000000000, 0.0000000000000000000 ) ) ;
#159 = EDGE_CURVE ( 'NONE', #22, #113, #38, .T. ) ;
#160 = PERSON_AND_ORGANIZATION ( #86, #52 ) ;
#161 = CC_DESIGN_PERSON_AND_ORGANIZATION_ASSIGNMENT ( #21, #154, ( #55 ) ) ;
#162 = ORIENTED_EDGE ( 'NONE', *, *, #119, .F. ) ;
#163 = COORDINATED_UNIVERSAL_TIME_OFFSET ( 5, 0, .BEHIND. ) ;
#164 = DATE_AND_TIME ( #136, #56 ) ;
#165 = AXIS2_PLACEMENT_3D ( 'NONE', #105, #101, #157 ) ;
#166 = PERSON_AND_ORGANIZATION_ROLE ( 'design_owner' ) ;
#167 = PERSON_AND_ORGANIZATION_ROLE ( 'classification_officer' ) ;
#168 = EDGE_CURVE ( 'NONE', #54, #113, #98, .T. ) ;
#169 =( NAMED_UNIT ( * ) PLANE_ANGLE_UNIT ( ) SI_UNIT ( $, .RADIAN. ) );
#170 = CARTESIAN_POINT ( 'NONE',  ( 5.000000000000000000, 6.123233995736766282E-16, 1.000000000000000000 ) ) ;
#171 = LOCAL_TIME ( 14, 19, 44.00000000000000000, #96 ) ;
#172 = ORIENTED_EDGE ( 'NONE', *, *, #168, .F. ) ;
#173 = APPLICATION_CONTEXT ( 'configuration controlled 3d designs of mechanical parts and assemblies' ) ;
#174 = COORDINATED_UNIVERSAL_TIME_OFFSET ( 5, 0, .BEHIND. ) ;
#175 = CYLINDRICAL_SURFACE ( 'NONE', #3, 5.000000000000000000 ) ;
ENDSEC;
END-ISO-10303-21;
