ISO-10303-21;
HEADER;
FILE_DESCRIPTION (( 'STEP AP214' ),
    '1' );
FILE_NAME ('4527-E0W.STEP',
    '2009-12-21T17:07:42',
    ( ' ' ),
    ( ' ' ),
    'SwSTEP 2.0',
    'SolidWorks 2009',
    '' );
FILE_SCHEMA (( 'AUTOMOTIVE_DESIGN' ));
ENDSEC;

DATA;
#1 = EDGE_CURVE ( 'NONE', #248, #11, #66, .T. ) ;
#2 = VERTEX_POINT ( 'NONE', #106 ) ;
#3 = EDGE_CURVE ( 'NONE', #2, #16, #132, .T. ) ;
#4 = ORIENTED_EDGE ( 'NONE', *, *, #3, .T. ) ;
#5 = ORIENTED_EDGE ( 'NONE', *, *, #6, .T. ) ;
#6 = EDGE_CURVE ( 'NONE', #251, #2, #122, .T. ) ;
#7 = ADVANCED_FACE ( 'NONE', ( #124 ), #117, .F. ) ;
#8 = ADVANCED_FACE ( 'NONE', ( #109 ), #76, .T. ) ;
#9 = ORIENTED_EDGE ( 'NONE', *, *, #6, .F. ) ;
#10 = EDGE_CURVE ( 'NONE', #39, #16, #165, .T. ) ;
#11 = VERTEX_POINT ( 'NONE', #152 ) ;
#12 = ORIENTED_EDGE ( 'NONE', *, *, #10, .F. ) ;
#13 = EDGE_LOOP ( 'NONE', ( #14, #21, #23, #17, #9 ) ) ;
#14 = ORIENTED_EDGE ( 'NONE', *, *, #250, .F. ) ;
#15 = ORIENTED_EDGE ( 'NONE', *, *, #27, .T. ) ;
#16 = VERTEX_POINT ( 'NONE', #156 ) ;
#17 = ORIENTED_EDGE ( 'NONE', *, *, #257, .F. ) ;
#18 = ADVANCED_FACE ( 'NONE', ( #158 ), #75, .T. ) ;
#19 = EDGE_LOOP ( 'NONE', ( #252, #253 ) ) ;
#20 = EDGE_LOOP ( 'NONE', ( #255, #256, #258, #259 ) ) ;
#21 = ORIENTED_EDGE ( 'NONE', *, *, #22, .T. ) ;
#22 = EDGE_CURVE ( 'NONE', #11, #248, #180, .T. ) ;
#23 = ORIENTED_EDGE ( 'NONE', *, *, #37, .T. ) ;
#24 = ORIENTED_EDGE ( 'NONE', *, *, #1, .T. ) ;
#25 = UNCERTAINTY_MEASURE_WITH_UNIT (LENGTH_MEASURE( 1.000000000000000100E-005 ), #123, 'distance_accuracy_value', 'NONE');
#26 = VERTEX_POINT ( 'NONE', #195 ) ;
#27 = EDGE_CURVE ( 'NONE', #39, #251, #198, .T. ) ;
#28 = EDGE_CURVE ( 'NONE', #26, #39, #173, .T. ) ;
#29 =( GEOMETRIC_REPRESENTATION_CONTEXT ( 3 ) GLOBAL_UNCERTAINTY_ASSIGNED_CONTEXT ( ( #25 ) ) GLOBAL_UNIT_ASSIGNED_CONTEXT ( ( #123, #107, #34 ) ) REPRESENTATION_CONTEXT ( 'NONE', 'WORKASPACE' ) );
#30 = ORIENTED_EDGE ( 'NONE', *, *, #37, .F. ) ;
#31 = ORIENTED_EDGE ( 'NONE', *, *, #27, .F. ) ;
#32 = EDGE_LOOP ( 'NONE', ( #15, #5, #4, #12 ) ) ;
#33 = ADVANCED_FACE ( 'NONE', ( #177 ), #81, .T. ) ;
#34 =( NAMED_UNIT ( * ) SI_UNIT ( $, .STERADIAN. ) SOLID_ANGLE_UNIT ( ) );
#35 = ADVANCED_FACE ( 'NONE', ( #203 ), #87, .T. ) ;
#36 =( NAMED_UNIT ( * ) PLANE_ANGLE_UNIT ( ) SI_UNIT ( $, .RADIAN. ) );
#37 = EDGE_CURVE ( 'NONE', #248, #26, #229, .T. ) ;
#38 = ORIENTED_EDGE ( 'NONE', *, *, #28, .F. ) ;
#39 = VERTEX_POINT ( 'NONE', #217 ) ;
#40 =( NAMED_UNIT ( * ) SI_UNIT ( $, .STERADIAN. ) SOLID_ANGLE_UNIT ( ) );
#41 =( GEOMETRIC_REPRESENTATION_CONTEXT ( 3 ) GLOBAL_UNCERTAINTY_ASSIGNED_CONTEXT ( ( #44 ) ) GLOBAL_UNIT_ASSIGNED_CONTEXT ( ( #228, #36, #40 ) ) REPRESENTATION_CONTEXT ( 'NONE', 'WORKASPACE' ) );
#42 =( LENGTH_UNIT ( ) NAMED_UNIT ( * ) SI_UNIT ( .MILLI., .METRE. ) );
#43 =( NAMED_UNIT ( * ) SI_UNIT ( $, .STERADIAN. ) SOLID_ANGLE_UNIT ( ) );
#44 = UNCERTAINTY_MEASURE_WITH_UNIT (LENGTH_MEASURE( 1.000000000000000100E-005 ), #228, 'distance_accuracy_value', 'NONE');
#45 = UNCERTAINTY_MEASURE_WITH_UNIT (LENGTH_MEASURE( 1.000000000000000100E-005 ), #42, 'distance_accuracy_value', 'NONE');
#46 =( NAMED_UNIT ( * ) PLANE_ANGLE_UNIT ( ) SI_UNIT ( $, .RADIAN. ) );
#47 = SURFACE_STYLE_USAGE ( .BOTH. , #55 ) ;
#48 = ADVANCED_BREP_SHAPE_REPRESENTATION ( '4527-E0W', ( #261, #246 ), #58 ) ;
#49 = FILL_AREA_STYLE_COLOUR ( '', #60 ) ;
#50 =( LENGTH_UNIT ( ) NAMED_UNIT ( * ) SI_UNIT ( .MILLI., .METRE. ) );
#51 = PRESENTATION_LAYER_ASSIGNMENT (  '', '', ( #53 ) ) ;
#52 = FILL_AREA_STYLE ('',( #49 ) ) ;
#53 = STYLED_ITEM ( 'NONE', ( #59 ), #48 ) ;
#54 = MECHANICAL_DESIGN_GEOMETRIC_PRESENTATION_REPRESENTATION (  '', ( #53 ), #71 ) ;
#55 = SURFACE_SIDE_STYLE ('',( #56 ) ) ;
#56 = SURFACE_STYLE_FILL_AREA ( #52 ) ;
#57 =( NAMED_UNIT ( * ) PLANE_ANGLE_UNIT ( ) SI_UNIT ( $, .RADIAN. ) );
#58 =( GEOMETRIC_REPRESENTATION_CONTEXT ( 3 ) GLOBAL_UNCERTAINTY_ASSIGNED_CONTEXT ( ( #45 ) ) GLOBAL_UNIT_ASSIGNED_CONTEXT ( ( #42, #46, #43 ) ) REPRESENTATION_CONTEXT ( 'NONE', 'WORKASPACE' ) );
#59 = PRESENTATION_STYLE_ASSIGNMENT (( #47 ) ) ;
#60 = COLOUR_RGB ( '',0.7960784313725489700, 0.8235294117647058400, 0.9372549019607843100 ) ;
#61 = UNCERTAINTY_MEASURE_WITH_UNIT (LENGTH_MEASURE( 1.000000000000000100E-005 ), #50, 'distance_accuracy_value', 'NONE');
#62 = DIRECTION ( 'NONE',  ( 1.000000000000000000, 0.0000000000000000000, 0.0000000000000000000 ) ) ;
#63 = DIRECTION ( 'NONE',  ( -0.0000000000000000000, -0.0000000000000000000, 1.000000000000000000 ) ) ;
#64 = CARTESIAN_POINT ( 'NONE',  ( 0.0000000000000000000, 0.0000000000000000000, -5.029999999999999400 ) ) ;
#65 = AXIS2_PLACEMENT_3D ( 'NONE', #64, #63, #62 ) ;
#66 = CIRCLE ( 'NONE', #65, 37.49999999999999300 ) ;
#67 =( NAMED_UNIT ( * ) SI_UNIT ( $, .STERADIAN. ) SOLID_ANGLE_UNIT ( ) );
#68 = DIRECTION ( 'NONE',  ( 0.0000000000000000000, 1.000000000000000000, 0.0000000000000000000 ) ) ;
#69 = DIRECTION ( 'NONE',  ( -1.000000000000000000, 0.0000000000000000000, 0.0000000000000000000 ) ) ;
#70 = CARTESIAN_POINT ( 'NONE',  ( 0.0000000000000000000, 0.0000000000000000000, 4.308132045400366600 ) ) ;
#71 =( GEOMETRIC_REPRESENTATION_CONTEXT ( 3 ) GLOBAL_UNCERTAINTY_ASSIGNED_CONTEXT ( ( #61 ) ) GLOBAL_UNIT_ASSIGNED_CONTEXT ( ( #50, #57, #67 ) ) REPRESENTATION_CONTEXT ( 'NONE', 'WORKASPACE' ) );
#72 = AXIS2_PLACEMENT_3D ( 'NONE', #73, #69, #68 ) ;
#73 = CARTESIAN_POINT ( 'NONE',  ( 0.0000000000000000000, 0.0000000000000000000, -97.97999999999999000 ) ) ;
#74 = DIRECTION ( 'NONE',  ( 0.0000000000000000000, 1.000000000000000000, 0.0000000000000000000 ) ) ;
#75 = CYLINDRICAL_SURFACE ( 'NONE', #84, 37.49999999999999300 ) ;
#76 = SPHERICAL_SURFACE ( 'NONE', #85, 103.0099999999999900 ) ;
#77 = AXIS2_PLACEMENT_3D ( 'NONE', #80, #79, #88 ) ;
#78 = DIRECTION ( 'NONE',  ( 1.000000000000000000, 0.0000000000000000000, 0.0000000000000000000 ) ) ;
#79 = DIRECTION ( 'NONE',  ( -0.0000000000000000000, -0.0000000000000000000, 1.000000000000000000 ) ) ;
#80 = CARTESIAN_POINT ( 'NONE',  ( 0.0000000000000000000, 0.0000000000000000000, 4.308132045400366600 ) ) ;
#81 = SPHERICAL_SURFACE ( 'NONE', #72, 103.0099999999999900 ) ;
#82 = DIRECTION ( 'NONE',  ( -0.0000000000000000000, -0.0000000000000000000, 1.000000000000000000 ) ) ;
#83 = DIRECTION ( 'NONE',  ( -1.000000000000000000, 0.0000000000000000000, 0.0000000000000000000 ) ) ;
#84 = AXIS2_PLACEMENT_3D ( 'NONE', #70, #82, #78 ) ;
#85 = AXIS2_PLACEMENT_3D ( 'NONE', #86, #83, #74 ) ;
#86 = CARTESIAN_POINT ( 'NONE',  ( 0.0000000000000000000, 0.0000000000000000000, -97.97999999999999000 ) ) ;
#87 = CYLINDRICAL_SURFACE ( 'NONE', #77, 37.49999999999999300 ) ;
#88 = DIRECTION ( 'NONE',  ( 1.000000000000000000, 0.0000000000000000000, 0.0000000000000000000 ) ) ;
#89 = FILL_AREA_STYLE_COLOUR ( '', #125 ) ;
#90 = PRESENTATION_STYLE_ASSIGNMENT (( #121 ) ) ;
#91 = SURFACE_STYLE_FILL_AREA ( #97 ) ;
#92 =( NAMED_UNIT ( * ) PLANE_ANGLE_UNIT ( ) SI_UNIT ( $, .RADIAN. ) );
#93 = SURFACE_SIDE_STYLE ('',( #91 ) ) ;
#94 = PRESENTATION_LAYER_ASSIGNMENT (  '', '', ( #96 ) ) ;
#95 = CARTESIAN_POINT ( 'NONE',  ( 0.0000000000000000000, 0.0000000000000000000, -2.038298430765758300 ) ) ;
#96 = STYLED_ITEM ( 'NONE', ( #90 ), #7 ) ;
#97 = FILL_AREA_STYLE ('',( #89 ) ) ;
#98 = DIRECTION ( 'NONE',  ( -1.000000000000000000, 1.224606353822377300E-016, 0.0000000000000000000 ) ) ;
#99 = DIRECTION ( 'NONE',  ( -1.224606353822377300E-016, -1.000000000000000000, 0.0000000000000000000 ) ) ;
#100 = MECHANICAL_DESIGN_GEOMETRIC_PRESENTATION_REPRESENTATION (  '', ( #96 ), #104 ) ;
#101 = PRESENTATION_LAYER_ASSIGNMENT (  '', '', ( #102 ) ) ;
#102 = STYLED_ITEM ( 'NONE', ( #103 ), #8 ) ;
#103 = PRESENTATION_STYLE_ASSIGNMENT (( #129 ) ) ;
#104 =( GEOMETRIC_REPRESENTATION_CONTEXT ( 3 ) GLOBAL_UNCERTAINTY_ASSIGNED_CONTEXT ( ( #133 ) ) GLOBAL_UNIT_ASSIGNED_CONTEXT ( ( #105, #92, #126 ) ) REPRESENTATION_CONTEXT ( 'NONE', 'WORKASPACE' ) );
#105 =( LENGTH_UNIT ( ) NAMED_UNIT ( * ) SI_UNIT ( .MILLI., .METRE. ) );
#106 = CARTESIAN_POINT ( 'NONE',  ( -4.592273826833911600E-015, -37.49999999999997900, -2.038298430765768100 ) ) ;
#107 =( NAMED_UNIT ( * ) PLANE_ANGLE_UNIT ( ) SI_UNIT ( $, .RADIAN. ) );
#108 = FILL_AREA_STYLE_COLOUR ( '', #114 ) ;
#109 = FACE_OUTER_BOUND ( 'NONE', #20, .T. ) ;
#110 = DIRECTION ( 'NONE',  ( 1.000000000000000000, 0.0000000000000000000, 0.0000000000000000000 ) ) ;
#111 = DIRECTION ( 'NONE',  ( 1.000000000000000000, 0.0000000000000000000, 0.0000000000000000000 ) ) ;
#112 = DIRECTION ( 'NONE',  ( -0.0000000000000000000, -0.0000000000000000000, 1.000000000000000000 ) ) ;
#113 = FILL_AREA_STYLE ('',( #108 ) ) ;
#114 = COLOUR_RGB ( '',0.9568627450980391500, 0.9490196078431372100, 0.9607843137254902200 ) ;
#115 = MECHANICAL_DESIGN_GEOMETRIC_PRESENTATION_REPRESENTATION (  '', ( #102 ), #29 ) ;
#116 = CARTESIAN_POINT ( 'NONE',  ( 0.0000000000000000000, 0.0000000000000000000, -97.97999999999999000 ) ) ;
#117 = PLANE ( 'NONE',  #120 ) ;
#118 = DIRECTION ( 'NONE',  ( 0.0000000000000000000, -0.0000000000000000000, 1.000000000000000000 ) ) ;
#119 = CARTESIAN_POINT ( 'NONE',  ( 0.0000000000000000000, 1.847992019913356200E-015, -5.029999999999999400 ) ) ;
#120 = AXIS2_PLACEMENT_3D ( 'NONE', #119, #118, #110 ) ;
#121 = SURFACE_STYLE_USAGE ( .BOTH. , #93 ) ;
#122 = CIRCLE ( 'NONE', #127, 37.50000000000000000 ) ;
#123 =( LENGTH_UNIT ( ) NAMED_UNIT ( * ) SI_UNIT ( .MILLI., .METRE. ) );
#124 = FACE_OUTER_BOUND ( 'NONE', #19, .T. ) ;
#125 = COLOUR_RGB ( '',0.9568627450980391500, 0.9490196078431372100, 0.9607843137254902200 ) ;
#126 =( NAMED_UNIT ( * ) SI_UNIT ( $, .STERADIAN. ) SOLID_ANGLE_UNIT ( ) );
#127 = AXIS2_PLACEMENT_3D ( 'NONE', #95, #112, #111 ) ;
#128 = AXIS2_PLACEMENT_3D ( 'NONE', #116, #98, #99 ) ;
#129 = SURFACE_STYLE_USAGE ( .BOTH. , #130 ) ;
#130 = SURFACE_SIDE_STYLE ('',( #131 ) ) ;
#131 = SURFACE_STYLE_FILL_AREA ( #113 ) ;
#132 = CIRCLE ( 'NONE', #128, 103.0099999999999900 ) ;
#133 = UNCERTAINTY_MEASURE_WITH_UNIT (LENGTH_MEASURE( 1.000000000000000100E-005 ), #105, 'distance_accuracy_value', 'NONE');
#134 = PRODUCT_DEFINITION ( 'UNKNOWN', '', #138, #143 ) ;
#135 = APPLICATION_PROTOCOL_DEFINITION ( 'draft international standard', 'automotive_design', 1998, #139 ) ;
#136 = PRODUCT_RELATED_PRODUCT_CATEGORY ( 'part', '', ( #144 ) ) ;
#137 = PRODUCT_CONTEXT ( 'NONE', #142, 'mechanical' ) ;
#138 = PRODUCT_DEFINITION_FORMATION_WITH_SPECIFIED_SOURCE ( 'ANY', '', #144, .NOT_KNOWN. ) ;
#139 = APPLICATION_CONTEXT ( 'automotive_design' ) ;
#140 = SHAPE_DEFINITION_REPRESENTATION ( #145, #48 ) ;
#141 = APPLICATION_PROTOCOL_DEFINITION ( 'draft international standard', 'automotive_design', 1998, #142 ) ;
#142 = APPLICATION_CONTEXT ( 'automotive_design' ) ;
#143 = PRODUCT_DEFINITION_CONTEXT ( 'detailed design', #139, 'design' ) ;
#144 = PRODUCT ( '4527-E0W', '4527-E0W', '', ( #137 ) ) ;
#145 = PRODUCT_DEFINITION_SHAPE ( 'NONE', 'NONE',  #134 ) ;
#146 = DIRECTION ( 'NONE',  ( 0.0000000000000000000, 0.0000000000000000000, -1.000000000000000000 ) ) ;
#147 = SURFACE_STYLE_FILL_AREA ( #154 ) ;
#148 =( NAMED_UNIT ( * ) PLANE_ANGLE_UNIT ( ) SI_UNIT ( $, .RADIAN. ) );
#149 = PRESENTATION_STYLE_ASSIGNMENT (( #150 ) ) ;
#150 = SURFACE_STYLE_USAGE ( .BOTH. , #151 ) ;
#151 = SURFACE_SIDE_STYLE ('',( #147 ) ) ;
#152 = CARTESIAN_POINT ( 'NONE',  ( -37.49999999999999300, 4.592273826833913100E-015, -5.029999999999999400 ) ) ;
#153 =( GEOMETRIC_REPRESENTATION_CONTEXT ( 3 ) GLOBAL_UNCERTAINTY_ASSIGNED_CONTEXT ( ( #163 ) ) GLOBAL_UNIT_ASSIGNED_CONTEXT ( ( #164, #148, #157 ) ) REPRESENTATION_CONTEXT ( 'NONE', 'WORKASPACE' ) );
#154 = FILL_AREA_STYLE ('',( #161 ) ) ;
#155 = COLOUR_RGB ( '',0.9568627450980391500, 0.9490196078431372100, 0.9607843137254902200 ) ;
#156 = CARTESIAN_POINT ( 'NONE',  ( 0.0000000000000000000, 6.307335025362153200E-015, 5.030000000000006500 ) ) ;
#157 =( NAMED_UNIT ( * ) SI_UNIT ( $, .STERADIAN. ) SOLID_ANGLE_UNIT ( ) );
#158 = FACE_OUTER_BOUND ( 'NONE', #13, .T. ) ;
#159 = CARTESIAN_POINT ( 'NONE',  ( 0.0000000000000000000, 0.0000000000000000000, -97.97999999999999000 ) ) ;
#160 = AXIS2_PLACEMENT_3D ( 'NONE', #159, #162, #146 ) ;
#161 = FILL_AREA_STYLE_COLOUR ( '', #155 ) ;
#162 = DIRECTION ( 'NONE',  ( 1.000000000000000000, 0.0000000000000000000, 0.0000000000000000000 ) ) ;
#163 = UNCERTAINTY_MEASURE_WITH_UNIT (LENGTH_MEASURE( 1.000000000000000100E-005 ), #164, 'distance_accuracy_value', 'NONE');
#164 =( LENGTH_UNIT ( ) NAMED_UNIT ( * ) SI_UNIT ( .MILLI., .METRE. ) );
#165 = CIRCLE ( 'NONE', #160, 103.0099999999999900 ) ;
#166 = MECHANICAL_DESIGN_GEOMETRIC_PRESENTATION_REPRESENTATION (  '', ( #168 ), #153 ) ;
#167 = PRESENTATION_LAYER_ASSIGNMENT (  '', '', ( #168 ) ) ;
#168 = STYLED_ITEM ( 'NONE', ( #149 ), #18 ) ;
#169 = DIRECTION ( 'NONE',  ( 1.000000000000000000, 0.0000000000000000000, 0.0000000000000000000 ) ) ;
#170 = PRESENTATION_LAYER_ASSIGNMENT (  '', '', ( #185 ) ) ;
#171 = CARTESIAN_POINT ( 'NONE',  ( 0.0000000000000000000, 0.0000000000000000000, -5.029999999999999400 ) ) ;
#172 = CARTESIAN_POINT ( 'NONE',  ( 0.0000000000000000000, 0.0000000000000000000, -2.038298430765758300 ) ) ;
#173 = CIRCLE ( 'NONE', #199, 37.50000000000000000 ) ;
#174 = DIRECTION ( 'NONE',  ( -0.0000000000000000000, -0.0000000000000000000, 1.000000000000000000 ) ) ;
#175 = AXIS2_PLACEMENT_3D ( 'NONE', #171, #188, #169 ) ;
#176 =( NAMED_UNIT ( * ) PLANE_ANGLE_UNIT ( ) SI_UNIT ( $, .RADIAN. ) );
#177 = FACE_OUTER_BOUND ( 'NONE', #32, .T. ) ;
#178 = SURFACE_SIDE_STYLE ('',( #187 ) ) ;
#179 =( GEOMETRIC_REPRESENTATION_CONTEXT ( 3 ) GLOBAL_UNCERTAINTY_ASSIGNED_CONTEXT ( ( #190 ) ) GLOBAL_UNIT_ASSIGNED_CONTEXT ( ( #189, #176, #191 ) ) REPRESENTATION_CONTEXT ( 'NONE', 'WORKASPACE' ) );
#180 = CIRCLE ( 'NONE', #175, 37.49999999999999300 ) ;
#181 = PRESENTATION_STYLE_ASSIGNMENT (( #192 ) ) ;
#182 = FILL_AREA_STYLE ('',( #193 ) ) ;
#183 = AXIS2_PLACEMENT_3D ( 'NONE', #172, #186, #196 ) ;
#184 = DIRECTION ( 'NONE',  ( 1.000000000000000000, 0.0000000000000000000, 0.0000000000000000000 ) ) ;
#185 = STYLED_ITEM ( 'NONE', ( #181 ), #33 ) ;
#186 = DIRECTION ( 'NONE',  ( -0.0000000000000000000, -0.0000000000000000000, 1.000000000000000000 ) ) ;
#187 = SURFACE_STYLE_FILL_AREA ( #182 ) ;
#188 = DIRECTION ( 'NONE',  ( -0.0000000000000000000, -0.0000000000000000000, 1.000000000000000000 ) ) ;
#189 =( LENGTH_UNIT ( ) NAMED_UNIT ( * ) SI_UNIT ( .MILLI., .METRE. ) );
#190 = UNCERTAINTY_MEASURE_WITH_UNIT (LENGTH_MEASURE( 1.000000000000000100E-005 ), #189, 'distance_accuracy_value', 'NONE');
#191 =( NAMED_UNIT ( * ) SI_UNIT ( $, .STERADIAN. ) SOLID_ANGLE_UNIT ( ) );
#192 = SURFACE_STYLE_USAGE ( .BOTH. , #178 ) ;
#193 = FILL_AREA_STYLE_COLOUR ( '', #194 ) ;
#194 = COLOUR_RGB ( '',0.9568627450980391500, 0.9490196078431372100, 0.9607843137254902200 ) ;
#195 = CARTESIAN_POINT ( 'NONE',  ( 37.50000000000000000, 0.0000000000000000000, -2.038298430765758300 ) ) ;
#196 = DIRECTION ( 'NONE',  ( 1.000000000000000000, 0.0000000000000000000, 0.0000000000000000000 ) ) ;
#197 = CARTESIAN_POINT ( 'NONE',  ( 0.0000000000000000000, 0.0000000000000000000, -2.038298430765758300 ) ) ;
#198 = CIRCLE ( 'NONE', #183, 37.50000000000000000 ) ;
#199 = AXIS2_PLACEMENT_3D ( 'NONE', #197, #174, #184 ) ;
#200 = MECHANICAL_DESIGN_GEOMETRIC_PRESENTATION_REPRESENTATION (  '', ( #185 ), #179 ) ;
#201 =( GEOMETRIC_REPRESENTATION_CONTEXT ( 3 ) GLOBAL_UNCERTAINTY_ASSIGNED_CONTEXT ( ( #205 ) ) GLOBAL_UNIT_ASSIGNED_CONTEXT ( ( #209, #204, #211 ) ) REPRESENTATION_CONTEXT ( 'NONE', 'WORKASPACE' ) );
#202 = PRESENTATION_LAYER_ASSIGNMENT (  '', '', ( #208 ) ) ;
#203 = FACE_OUTER_BOUND ( 'NONE', #260, .T. ) ;
#204 =( NAMED_UNIT ( * ) PLANE_ANGLE_UNIT ( ) SI_UNIT ( $, .RADIAN. ) );
#205 = UNCERTAINTY_MEASURE_WITH_UNIT (LENGTH_MEASURE( 1.000000000000000100E-005 ), #209, 'distance_accuracy_value', 'NONE');
#206 = FILL_AREA_STYLE ('',( #213 ) ) ;
#207 = MECHANICAL_DESIGN_GEOMETRIC_PRESENTATION_REPRESENTATION (  '', ( #208 ), #201 ) ;
#208 = STYLED_ITEM ( 'NONE', ( #215 ), #35 ) ;
#209 =( LENGTH_UNIT ( ) NAMED_UNIT ( * ) SI_UNIT ( .MILLI., .METRE. ) );
#210 = SURFACE_SIDE_STYLE ('',( #216 ) ) ;
#211 =( NAMED_UNIT ( * ) SI_UNIT ( $, .STERADIAN. ) SOLID_ANGLE_UNIT ( ) );
#212 = SURFACE_STYLE_USAGE ( .BOTH. , #210 ) ;
#213 = FILL_AREA_STYLE_COLOUR ( '', #214 ) ;
#214 = COLOUR_RGB ( '',0.9568627450980391500, 0.9490196078431372100, 0.9607843137254902200 ) ;
#215 = PRESENTATION_STYLE_ASSIGNMENT (( #212 ) ) ;
#216 = SURFACE_STYLE_FILL_AREA ( #206 ) ;
#217 = CARTESIAN_POINT ( 'NONE',  ( 0.0000000000000000000, 37.49999999999997900, -2.038298430765768100 ) ) ;
#218 = AXIS2_PLACEMENT_3D ( 'NONE', #234, #242, #223 ) ;
#219 = SURFACE_SIDE_STYLE ('',( #220 ) ) ;
#220 = SURFACE_STYLE_FILL_AREA ( #221 ) ;
#221 = FILL_AREA_STYLE ('',( #222 ) ) ;
#222 = FILL_AREA_STYLE_COLOUR ( '', #243 ) ;
#223 = DIRECTION ( 'NONE',  ( 1.000000000000000000, 0.0000000000000000000, 0.0000000000000000000 ) ) ;
#224 = CARTESIAN_POINT ( 'NONE',  ( 37.49999999999999300, 0.0000000000000000000, 4.308132045400366600 ) ) ;
#225 = CIRCLE ( 'NONE', #218, 37.50000000000000000 ) ;
#226 = DIRECTION ( 'NONE',  ( -0.0000000000000000000, -0.0000000000000000000, 1.000000000000000000 ) ) ;
#227 = VECTOR ( 'NONE', #226, 1000.000000000000000 ) ;
#228 =( LENGTH_UNIT ( ) NAMED_UNIT ( * ) SI_UNIT ( .MILLI., .METRE. ) );
#229 = LINE ( 'NONE', #224, #227 ) ;
#230 = CARTESIAN_POINT ( 'NONE',  ( -37.50000000000000000, 4.592273826833913900E-015, -2.038298430765758300 ) ) ;
#231 = VECTOR ( 'NONE', #240, 1000.000000000000000 ) ;
#232 = LINE ( 'NONE', #241, #231 ) ;
#233 = CARTESIAN_POINT ( 'NONE',  ( 37.49999999999999300, 0.0000000000000000000, -5.029999999999999400 ) ) ;
#234 = CARTESIAN_POINT ( 'NONE',  ( 0.0000000000000000000, 0.0000000000000000000, -2.038298430765758300 ) ) ;
#235 = MECHANICAL_DESIGN_GEOMETRIC_PRESENTATION_REPRESENTATION (  '', ( #237 ), #41 ) ;
#236 = PRESENTATION_LAYER_ASSIGNMENT (  '', '', ( #237 ) ) ;
#237 = STYLED_ITEM ( 'NONE', ( #238 ), #261 ) ;
#238 = PRESENTATION_STYLE_ASSIGNMENT (( #239 ) ) ;
#239 = SURFACE_STYLE_USAGE ( .BOTH. , #219 ) ;
#240 = DIRECTION ( 'NONE',  ( -0.0000000000000000000, -0.0000000000000000000, 1.000000000000000000 ) ) ;
#241 = CARTESIAN_POINT ( 'NONE',  ( -37.49999999999999300, 4.592273826833913100E-015, 4.308132045400366600 ) ) ;
#242 = DIRECTION ( 'NONE',  ( -0.0000000000000000000, -0.0000000000000000000, 1.000000000000000000 ) ) ;
#243 = COLOUR_RGB ( '',0.7960784313725489700, 0.8235294117647058400, 0.9372549019607843100 ) ;
#244 = CARTESIAN_POINT ( 'NONE',  ( 0.0000000000000000000, 0.0000000000000000000, 0.0000000000000000000 ) ) ;
#245 = DIRECTION ( 'NONE',  ( 1.000000000000000000, 0.0000000000000000000, 0.0000000000000000000 ) ) ;
#246 = AXIS2_PLACEMENT_3D ( 'NONE', #244, #247, #245 ) ;
#247 = DIRECTION ( 'NONE',  ( 0.0000000000000000000, 0.0000000000000000000, 1.000000000000000000 ) ) ;
#248 = VERTEX_POINT ( 'NONE', #233 ) ;
#249 = ORIENTED_EDGE ( 'NONE', *, *, #250, .T. ) ;
#250 = EDGE_CURVE ( 'NONE', #11, #251, #232, .T. ) ;
#251 = VERTEX_POINT ( 'NONE', #230 ) ;
#252 = ORIENTED_EDGE ( 'NONE', *, *, #1, .F. ) ;
#253 = ORIENTED_EDGE ( 'NONE', *, *, #22, .F. ) ;
#254 = CLOSED_SHELL ( 'NONE', ( #35, #33, #8, #18, #7 ) ) ;
#255 = ORIENTED_EDGE ( 'NONE', *, *, #3, .F. ) ;
#256 = ORIENTED_EDGE ( 'NONE', *, *, #257, .T. ) ;
#257 = EDGE_CURVE ( 'NONE', #2, #26, #225, .T. ) ;
#258 = ORIENTED_EDGE ( 'NONE', *, *, #28, .T. ) ;
#259 = ORIENTED_EDGE ( 'NONE', *, *, #10, .T. ) ;
#260 = EDGE_LOOP ( 'NONE', ( #24, #249, #31, #38, #30 ) ) ;
#261 = MANIFOLD_SOLID_BREP ( 'NONE', #254 ) ;
ENDSEC;
END-ISO-10303-21;
