ISO-10303-21;
HEADER;
FILE_DESCRIPTION (( 'STEP AP203' ),
    '1' );
FILE_NAME ('43365C_36477.step',
    '2017-07-20T12:39:08',
    ( '' ),
    ( '' ),
    'SwSTEP 2.0',
    'SolidWorks 2016',
    '' );
FILE_SCHEMA (( 'CONFIG_CONTROL_DESIGN' ));
ENDSEC;

DATA;
#1 = APPROVAL_DATE_TIME ( #33, #106 ) ;
#2 = CC_DESIGN_PERSON_AND_ORGANIZATION_ASSIGNMENT ( #46, #65, ( #151 ) ) ;
#3 = EDGE_CURVE ( 'NONE', #25, #38, #86, .T. ) ;
#4 = ORIENTED_EDGE ( 'NONE', *, *, #8, .F. ) ;
#5 = EDGE_CURVE ( 'NONE', #28, #97, #107, .T. ) ;
#6 = DESIGN_CONTEXT ( 'detailed design', #160, 'design' ) ;
#7 = CARTESIAN_POINT ( 'NONE',  ( 0.0000000000000000000, 0.0000000000000000000, 0.5000000000000000000 ) ) ;
#8 = EDGE_CURVE ( 'NONE', #28, #25, #53, .T. ) ;
#9 = PRODUCT_RELATED_PRODUCT_CATEGORY ( 'detail', '', ( #151 ) ) ;
#10 = EDGE_CURVE ( 'NONE', #97, #28, #19, .T. ) ;
#11 = ORIENTED_EDGE ( 'NONE', *, *, #27, .F. ) ;
#12 = DIRECTION ( 'NONE',  ( 0.0000000000000000000, 0.0000000000000000000, 1.000000000000000000 ) ) ;
#13 = CARTESIAN_POINT ( 'NONE',  ( 0.0000000000000000000, 0.0000000000000000000, 0.5000000000000000000 ) ) ;
#14 = ADVANCED_FACE ( 'NONE', ( #121 ), #114, .T. ) ;
#15 =( NAMED_UNIT ( * ) PLANE_ANGLE_UNIT ( ) SI_UNIT ( $, .RADIAN. ) );
#16 = PERSON_AND_ORGANIZATION_ROLE ( 'creator' ) ;
#17 = EDGE_CURVE ( 'NONE', #38, #25, #47, .T. ) ;
#18 = PERSON_AND_ORGANIZATION ( #175, #119 ) ;
#19 = CIRCLE ( 'NONE', #68, 2.500000000000000000 ) ;
#20 = CARTESIAN_POINT ( 'NONE',  ( -2.500000000000000000, 0.0000000000000000000, 0.5000000000000000000 ) ) ;
#21 = ORIENTED_EDGE ( 'NONE', *, *, #10, .F. ) ;
#22 = APPROVAL_DATE_TIME ( #58, #101 ) ;
#23 = CARTESIAN_POINT ( 'NONE',  ( -2.500000000000000000, 0.0000000000000000000, 0.5000000000000000000 ) ) ;
#24 = APPROVAL_STATUS ( 'not_yet_approved' ) ;
#25 = VERTEX_POINT ( 'NONE', #141 ) ;
#26 = APPROVAL_PERSON_ORGANIZATION ( #61, #101, #78 ) ;
#27 = EDGE_CURVE ( 'NONE', #97, #38, #36, .T. ) ;
#28 = VERTEX_POINT ( 'NONE', #85 ) ;
#29 = CARTESIAN_POINT ( 'NONE',  ( 0.0000000000000000000, 0.0000000000000000000, -0.5000000000000000000 ) ) ;
#30 = COORDINATED_UNIVERSAL_TIME_OFFSET ( 5, 0, .BEHIND. ) ;
#31 = PERSON_AND_ORGANIZATION ( #175, #119 ) ;
#32 = DIRECTION ( 'NONE',  ( 0.0000000000000000000, 0.0000000000000000000, 1.000000000000000000 ) ) ;
#33 = DATE_AND_TIME ( #72, #104 ) ;
#34 = PLANE ( 'NONE',  #63 ) ;
#35 = AXIS2_PLACEMENT_3D ( 'NONE', #45, #32, #62 ) ;
#36 = LINE ( 'NONE', #20, #153 ) ;
#37 = PERSON_AND_ORGANIZATION_ROLE ( 'creator' ) ;
#38 = VERTEX_POINT ( 'NONE', #154 ) ;
#39 = MANIFOLD_SOLID_BREP ( 'Boss-Extrude1', #108 ) ;
#40 = AXIS2_PLACEMENT_3D ( 'NONE', #29, #122, #41 ) ;
#41 = DIRECTION ( 'NONE',  ( 1.000000000000000000, 0.0000000000000000000, 0.0000000000000000000 ) ) ;
#42 = DIRECTION ( 'NONE',  ( 1.000000000000000000, 0.0000000000000000000, 0.0000000000000000000 ) ) ;
#43 = FACE_OUTER_BOUND ( 'NONE', #111, .T. ) ;
#44 = AXIS2_PLACEMENT_3D ( 'NONE', #144, #127, #52 ) ;
#45 = CARTESIAN_POINT ( 'NONE',  ( 0.0000000000000000000, 0.0000000000000000000, 0.5000000000000000000 ) ) ;
#46 = PERSON_AND_ORGANIZATION ( #175, #119 ) ;
#47 = CIRCLE ( 'NONE', #81, 2.500000000000000000 ) ;
#48 = CYLINDRICAL_SURFACE ( 'NONE', #44, 2.500000000000000000 ) ;
#49 = DIRECTION ( 'NONE',  ( 1.000000000000000000, 0.0000000000000000000, 0.0000000000000000000 ) ) ;
#50 = SECURITY_CLASSIFICATION_LEVEL ( 'unclassified' ) ;
#51 = SHAPE_DEFINITION_REPRESENTATION ( #54, #105 ) ;
#52 = DIRECTION ( 'NONE',  ( -1.000000000000000000, 0.0000000000000000000, 0.0000000000000000000 ) ) ;
#53 = LINE ( 'NONE', #99, #157 ) ;
#54 = PRODUCT_DEFINITION_SHAPE ( 'NONE', 'NONE',  #109 ) ;
#55 = ORIENTED_EDGE ( 'NONE', *, *, #10, .T. ) ;
#56 = AXIS2_PLACEMENT_3D ( 'NONE', #13, #113, #57 ) ;
#57 = DIRECTION ( 'NONE',  ( 1.000000000000000000, 0.0000000000000000000, 0.0000000000000000000 ) ) ;
#58 = DATE_AND_TIME ( #91, #130 ) ;
#59 = ORIENTED_EDGE ( 'NONE', *, *, #5, .F. ) ;
#60 = DIRECTION ( 'NONE',  ( -0.0000000000000000000, -0.0000000000000000000, -1.000000000000000000 ) ) ;
#61 = PERSON_AND_ORGANIZATION ( #175, #119 ) ;
#62 = DIRECTION ( 'NONE',  ( 1.000000000000000000, 0.0000000000000000000, -0.0000000000000000000 ) ) ;
#63 = AXIS2_PLACEMENT_3D ( 'NONE', #172, #145, #159 ) ;
#64 = ADVANCED_FACE ( 'NONE', ( #152 ), #143, .T. ) ;
#65 = PERSON_AND_ORGANIZATION_ROLE ( 'design_owner' ) ;
#66 = DATE_TIME_ROLE ( 'classification_date' ) ;
#67 = ORIENTED_EDGE ( 'NONE', *, *, #5, .T. ) ;
#68 = AXIS2_PLACEMENT_3D ( 'NONE', #123, #94, #42 ) ;
#69 = PERSON_AND_ORGANIZATION ( #175, #119 ) ;
#70 = APPROVAL_PERSON_ORGANIZATION ( #118, #106, #117 ) ;
#71 = CALENDAR_DATE ( 2017, 20, 7 ) ;
#72 = CALENDAR_DATE ( 2017, 20, 7 ) ;
#73 = AXIS2_PLACEMENT_3D ( 'NONE', #7, #83, #95 ) ;
#74 =( LENGTH_UNIT ( ) NAMED_UNIT ( * ) SI_UNIT ( .MILLI., .METRE. ) );
#75 = ADVANCED_FACE ( 'NONE', ( #84 ), #48, .T. ) ;
#76 = APPLICATION_PROTOCOL_DEFINITION ( 'international standard', 'config_control_design', 1994, #160 ) ;
#77 = DATE_AND_TIME ( #71, #164 ) ;
#78 = APPROVAL_ROLE ( '' ) ;
#79 = CC_DESIGN_PERSON_AND_ORGANIZATION_ASSIGNMENT ( #31, #16, ( #109 ) ) ;
#80 = DIRECTION ( 'NONE',  ( 1.000000000000000000, 0.0000000000000000000, 0.0000000000000000000 ) ) ;
#81 = AXIS2_PLACEMENT_3D ( 'NONE', #110, #129, #80 ) ;
#82 = APPROVAL_PERSON_ORGANIZATION ( #18, #140, #88 ) ;
#83 = DIRECTION ( 'NONE',  ( -0.0000000000000000000, -0.0000000000000000000, -1.000000000000000000 ) ) ;
#84 = FACE_OUTER_BOUND ( 'NONE', #163, .T. ) ;
#85 = CARTESIAN_POINT ( 'NONE',  ( 2.500000000000000000, 3.061616997868383100E-016, 0.5000000000000000000 ) ) ;
#86 = CIRCLE ( 'NONE', #40, 2.500000000000000000 ) ;
#87 = CC_DESIGN_DATE_AND_TIME_ASSIGNMENT ( #77, #102, ( #109 ) ) ;
#88 = APPROVAL_ROLE ( '' ) ;
#89 = ORIENTED_EDGE ( 'NONE', *, *, #3, .T. ) ;
#90 =( GEOMETRIC_REPRESENTATION_CONTEXT ( 3 ) GLOBAL_UNCERTAINTY_ASSIGNED_CONTEXT ( ( #139 ) ) GLOBAL_UNIT_ASSIGNED_CONTEXT ( ( #74, #15, #100 ) ) REPRESENTATION_CONTEXT ( 'NONE', 'WORKASPACE' ) );
#91 = CALENDAR_DATE ( 2017, 20, 7 ) ;
#92 = ORIENTED_EDGE ( 'NONE', *, *, #17, .T. ) ;
#93 = DATE_AND_TIME ( #135, #171 ) ;
#94 = DIRECTION ( 'NONE',  ( 0.0000000000000000000, 0.0000000000000000000, 1.000000000000000000 ) ) ;
#95 = DIRECTION ( 'NONE',  ( -1.000000000000000000, 0.0000000000000000000, 0.0000000000000000000 ) ) ;
#96 = PRODUCT_DEFINITION_FORMATION_WITH_SPECIFIED_SOURCE ( 'ANY', '', #151, .NOT_KNOWN. ) ;
#97 = VERTEX_POINT ( 'NONE', #23 ) ;
#98 = PERSON_AND_ORGANIZATION ( #175, #119 ) ;
#99 = CARTESIAN_POINT ( 'NONE',  ( 2.500000000000000000, 3.061616997868383100E-016, 0.5000000000000000000 ) ) ;
#100 =( NAMED_UNIT ( * ) SI_UNIT ( $, .STERADIAN. ) SOLID_ANGLE_UNIT ( ) );
#101 = APPROVAL ( #161, 'UNSPECIFIED' ) ;
#102 = DATE_TIME_ROLE ( 'creation_date' ) ;
#103 = DIRECTION ( 'NONE',  ( -0.0000000000000000000, -0.0000000000000000000, -1.000000000000000000 ) ) ;
#104 = LOCAL_TIME ( 8, 39, 8.000000000000000000, #142 ) ;
#105 = ADVANCED_BREP_SHAPE_REPRESENTATION ( '43365C_36477', ( #39, #169 ), #90 ) ;
#106 = APPROVAL ( #24, 'UNSPECIFIED' ) ;
#107 = CIRCLE ( 'NONE', #56, 2.500000000000000000 ) ;
#108 = CLOSED_SHELL ( 'NONE', ( #14, #75, #64, #131 ) ) ;
#109 = PRODUCT_DEFINITION ( 'UNKNOWN', '', #96, #6 ) ;
#110 = CARTESIAN_POINT ( 'NONE',  ( 0.0000000000000000000, 0.0000000000000000000, -0.5000000000000000000 ) ) ;
#111 = EDGE_LOOP ( 'NONE', ( #170, #167 ) ) ;
#112 = CC_DESIGN_SECURITY_CLASSIFICATION ( #147, ( #96 ) ) ;
#113 = DIRECTION ( 'NONE',  ( 0.0000000000000000000, 0.0000000000000000000, 1.000000000000000000 ) ) ;
#114 = CYLINDRICAL_SURFACE ( 'NONE', #73, 2.500000000000000000 ) ;
#115 = APPLICATION_PROTOCOL_DEFINITION ( 'international standard', 'config_control_design', 1994, #132 ) ;
#116 = CC_DESIGN_APPROVAL ( #106, ( #96 ) ) ;
#117 = APPROVAL_ROLE ( '' ) ;
#118 = PERSON_AND_ORGANIZATION ( #175, #119 ) ;
#119 = ORGANIZATION ( 'UNSPECIFIED', 'UNSPECIFIED', '' ) ;
#120 = COORDINATED_UNIVERSAL_TIME_OFFSET ( 5, 0, .BEHIND. ) ;
#121 = FACE_OUTER_BOUND ( 'NONE', #134, .T. ) ;
#122 = DIRECTION ( 'NONE',  ( 0.0000000000000000000, 0.0000000000000000000, 1.000000000000000000 ) ) ;
#123 = CARTESIAN_POINT ( 'NONE',  ( 0.0000000000000000000, 0.0000000000000000000, 0.5000000000000000000 ) ) ;
#124 = LOCAL_TIME ( 8, 39, 8.000000000000000000, #120 ) ;
#125 = CC_DESIGN_PERSON_AND_ORGANIZATION_ASSIGNMENT ( #138, #37, ( #96 ) ) ;
#126 = CC_DESIGN_APPROVAL ( #101, ( #147 ) ) ;
#127 = DIRECTION ( 'NONE',  ( -0.0000000000000000000, -0.0000000000000000000, -1.000000000000000000 ) ) ;
#128 = EDGE_LOOP ( 'NONE', ( #55, #67 ) ) ;
#129 = DIRECTION ( 'NONE',  ( 0.0000000000000000000, 0.0000000000000000000, 1.000000000000000000 ) ) ;
#130 = LOCAL_TIME ( 8, 39, 8.000000000000000000, #168 ) ;
#131 = ADVANCED_FACE ( 'NONE', ( #43 ), #34, .F. ) ;
#132 = APPLICATION_CONTEXT ( 'configuration controlled 3d designs of mechanical parts and assemblies' ) ;
#133 = PERSON_AND_ORGANIZATION_ROLE ( 'design_supplier' ) ;
#134 = EDGE_LOOP ( 'NONE', ( #59, #162, #89, #11 ) ) ;
#135 = CALENDAR_DATE ( 2017, 20, 7 ) ;
#136 = CC_DESIGN_PERSON_AND_ORGANIZATION_ASSIGNMENT ( #98, #133, ( #96 ) ) ;
#137 = DATE_AND_TIME ( #165, #124 ) ;
#138 = PERSON_AND_ORGANIZATION ( #175, #119 ) ;
#139 = UNCERTAINTY_MEASURE_WITH_UNIT (LENGTH_MEASURE( 1.000000000000000100E-005 ), #74, 'distance_accuracy_value', 'NONE');
#140 = APPROVAL ( #174, 'UNSPECIFIED' ) ;
#141 = CARTESIAN_POINT ( 'NONE',  ( 2.500000000000000000, 3.061616997868383100E-016, -0.5000000000000000000 ) ) ;
#142 = COORDINATED_UNIVERSAL_TIME_OFFSET ( 5, 0, .BEHIND. ) ;
#143 = PLANE ( 'NONE',  #35 ) ;
#144 = CARTESIAN_POINT ( 'NONE',  ( 0.0000000000000000000, 0.0000000000000000000, 0.5000000000000000000 ) ) ;
#145 = DIRECTION ( 'NONE',  ( 0.0000000000000000000, 0.0000000000000000000, 1.000000000000000000 ) ) ;
#146 = MECHANICAL_CONTEXT ( 'NONE', #132, 'mechanical' ) ;
#147 = SECURITY_CLASSIFICATION ( '', '', #50 ) ;
#148 = PERSON_AND_ORGANIZATION_ROLE ( 'classification_officer' ) ;
#149 = ORIENTED_EDGE ( 'NONE', *, *, #27, .T. ) ;
#150 = CC_DESIGN_DATE_AND_TIME_ASSIGNMENT ( #93, #66, ( #147 ) ) ;
#151 = PRODUCT ( '43365C_36477', '43365C_36477', '', ( #146 ) ) ;
#152 = FACE_OUTER_BOUND ( 'NONE', #128, .T. ) ;
#153 = VECTOR ( 'NONE', #60, 1000.000000000000000 ) ;
#154 = CARTESIAN_POINT ( 'NONE',  ( -2.500000000000000000, 0.0000000000000000000, -0.5000000000000000000 ) ) ;
#155 = CC_DESIGN_PERSON_AND_ORGANIZATION_ASSIGNMENT ( #69, #148, ( #147 ) ) ;
#156 = APPROVAL_DATE_TIME ( #137, #140 ) ;
#157 = VECTOR ( 'NONE', #103, 1000.000000000000000 ) ;
#158 = CC_DESIGN_APPROVAL ( #140, ( #109 ) ) ;
#159 = DIRECTION ( 'NONE',  ( 1.000000000000000000, 0.0000000000000000000, -0.0000000000000000000 ) ) ;
#160 = APPLICATION_CONTEXT ( 'configuration controlled 3d designs of mechanical parts and assemblies' ) ;
#161 = APPROVAL_STATUS ( 'not_yet_approved' ) ;
#162 = ORIENTED_EDGE ( 'NONE', *, *, #8, .T. ) ;
#163 = EDGE_LOOP ( 'NONE', ( #4, #21, #149, #92 ) ) ;
#164 = LOCAL_TIME ( 8, 39, 8.000000000000000000, #166 ) ;
#165 = CALENDAR_DATE ( 2017, 20, 7 ) ;
#166 = COORDINATED_UNIVERSAL_TIME_OFFSET ( 5, 0, .BEHIND. ) ;
#167 = ORIENTED_EDGE ( 'NONE', *, *, #3, .F. ) ;
#168 = COORDINATED_UNIVERSAL_TIME_OFFSET ( 5, 0, .BEHIND. ) ;
#169 = AXIS2_PLACEMENT_3D ( 'NONE', #173, #12, #49 ) ;
#170 = ORIENTED_EDGE ( 'NONE', *, *, #17, .F. ) ;
#171 = LOCAL_TIME ( 8, 39, 8.000000000000000000, #30 ) ;
#172 = CARTESIAN_POINT ( 'NONE',  ( 0.0000000000000000000, 0.0000000000000000000, -0.5000000000000000000 ) ) ;
#173 = CARTESIAN_POINT ( 'NONE',  ( 0.0000000000000000000, 0.0000000000000000000, 0.0000000000000000000 ) ) ;
#174 = APPROVAL_STATUS ( 'not_yet_approved' ) ;
#175 = PERSON ( 'UNSPECIFIED', 'UNSPECIFIED', 'UNSPECIFIED', ('UNSPECIFIED'), ('UNSPECIFIED'), ('UNSPECIFIED') ) ;
ENDSEC;
END-ISO-10303-21;
