ISO-10303-21;
HEADER;
FILE_DESCRIPTION (( 'STEP AP203' ),
    '1' );
FILE_NAME ('Web Model 20161_20161.step',
    '2022-03-22T20:13:13',
    ( '' ),
    ( '' ),
    'SwSTEP 2.0',
    'SolidWorks 2021',
    '' );
FILE_SCHEMA (( 'CONFIG_CONTROL_DESIGN' ));
ENDSEC;

DATA;
#1 = CIRCLE ( 'NONE', #27, 62.50000000000000000 ) ;
#2 = ADVANCED_FACE ( 'NONE', ( #19 ), #150, .T. ) ;
#3 = DIRECTION ( 'NONE',  ( 1.000000000000000000, 0.000000000000000000, -0.000000000000000000 ) ) ;
#4 = DIRECTION ( 'NONE',  ( 0.000000000000000000, 0.000000000000000000, 1.000000000000000000 ) ) ;
#5 = CARTESIAN_POINT ( 'NONE',  ( 0.000000000000000000, 0.000000000000000000, 3.000000000000000000 ) ) ;
#6 = APPROVAL_PERSON_ORGANIZATION ( #52, #21, #93 ) ;
#7 = DIRECTION ( 'NONE',  ( 1.000000000000000000, 0.000000000000000000, 0.000000000000000000 ) ) ;
#8 = VECTOR ( 'NONE', #166, 1000.000000000000000 ) ;
#9 = EDGE_CURVE ( 'NONE', #43, #137, #94, .T. ) ;
#10 = APPROVAL_DATE_TIME ( #106, #162 ) ;
#11 = CALENDAR_DATE ( 2022, 22, 3 ) ;
#12 = COORDINATED_UNIVERSAL_TIME_OFFSET ( 5, 0, .BEHIND. ) ;
#13 = APPROVAL_ROLE ( '' ) ;
#14 = ADVANCED_BREP_SHAPE_REPRESENTATION ( 'Web Model 20161_20161', ( #41, #113 ), #121 ) ;
#15 = AXIS2_PLACEMENT_3D ( 'NONE', #103, #169, #35 ) ;
#16 = ORIENTED_EDGE ( 'NONE', *, *, #91, .T. ) ;
#17 = EDGE_LOOP ( 'NONE', ( #125, #110, #16, #68 ) ) ;
#18 = PRODUCT_DEFINITION_SHAPE ( 'NONE', 'NONE',  #95 ) ;
#19 = FACE_OUTER_BOUND ( 'NONE', #133, .T. ) ;
#20 = DIRECTION ( 'NONE',  ( 0.000000000000000000, 0.000000000000000000, 1.000000000000000000 ) ) ;
#21 = APPROVAL ( #40, 'UNSPECIFIED' ) ;
#22 =( LENGTH_UNIT ( ) NAMED_UNIT ( * ) SI_UNIT ( .MILLI., .METRE. ) );
#23 = LOCAL_TIME ( 16, 13, 13.00000000000000000, #64 ) ;
#24 = AXIS2_PLACEMENT_3D ( 'NONE', #33, #20, #90 ) ;
#25 = APPROVAL_ROLE ( '' ) ;
#26 = DATE_AND_TIME ( #11, #173 ) ;
#27 = AXIS2_PLACEMENT_3D ( 'NONE', #36, #34, #61 ) ;
#28 = APPROVAL ( #122, 'UNSPECIFIED' ) ;
#29 = APPLICATION_PROTOCOL_DEFINITION ( 'international standard', 'config_control_design', 1994, #126 ) ;
#30 = ORIENTED_EDGE ( 'NONE', *, *, #9, .T. ) ;
#31 = ORIENTED_EDGE ( 'NONE', *, *, #38, .T. ) ;
#32 = CC_DESIGN_SECURITY_CLASSIFICATION ( #82, ( #58 ) ) ;
#33 = CARTESIAN_POINT ( 'NONE',  ( 0.000000000000000000, 0.000000000000000000, 3.000000000000000000 ) ) ;
#34 = DIRECTION ( 'NONE',  ( 0.000000000000000000, 0.000000000000000000, 1.000000000000000000 ) ) ;
#35 = DIRECTION ( 'NONE',  ( 1.000000000000000000, 0.000000000000000000, 0.000000000000000000 ) ) ;
#36 = CARTESIAN_POINT ( 'NONE',  ( 0.000000000000000000, 0.000000000000000000, 0.000000000000000000 ) ) ;
#37 = ADVANCED_FACE ( 'NONE', ( #152 ), #57, .F. ) ;
#38 = EDGE_CURVE ( 'NONE', #137, #43, #70, .T. ) ;
#39 =( NAMED_UNIT ( * ) SI_UNIT ( $, .STERADIAN. ) SOLID_ANGLE_UNIT ( ) );
#40 = APPROVAL_STATUS ( 'not_yet_approved' ) ;
#41 = MANIFOLD_SOLID_BREP ( 'Boss-Extrude1', #100 ) ;
#42 = PERSON_AND_ORGANIZATION_ROLE ( 'design_owner' ) ;
#43 = VERTEX_POINT ( 'NONE', #167 ) ;
#44 = DESIGN_CONTEXT ( 'detailed design', #60, 'design' ) ;
#45 = VERTEX_POINT ( 'NONE', #48 ) ;
#46 = PRODUCT_RELATED_PRODUCT_CATEGORY ( 'detail', '', ( #73 ) ) ;
#47 = DIRECTION ( 'NONE',  ( 1.000000000000000000, 0.000000000000000000, 0.000000000000000000 ) ) ;
#48 = CARTESIAN_POINT ( 'NONE',  ( 62.50000000000000000, 7.654042494670957804E-15, 0.000000000000000000 ) ) ;
#49 = CARTESIAN_POINT ( 'NONE',  ( 0.000000000000000000, 0.000000000000000000, 3.000000000000000000 ) ) ;
#50 = CARTESIAN_POINT ( 'NONE',  ( 0.000000000000000000, 0.000000000000000000, 0.000000000000000000 ) ) ;
#51 = CALENDAR_DATE ( 2022, 22, 3 ) ;
#52 = PERSON_AND_ORGANIZATION ( #79, #142 ) ;
#53 = APPROVAL_DATE_TIME ( #158, #21 ) ;
#54 = AXIS2_PLACEMENT_3D ( 'NONE', #50, #138, #3 ) ;
#55 = COORDINATED_UNIVERSAL_TIME_OFFSET ( 5, 0, .BEHIND. ) ;
#56 = CC_DESIGN_PERSON_AND_ORGANIZATION_ASSIGNMENT ( #161, #97, ( #58 ) ) ;
#57 = PLANE ( 'NONE',  #54 ) ;
#58 = PRODUCT_DEFINITION_FORMATION_WITH_SPECIFIED_SOURCE ( 'ANY', '', #73, .NOT_KNOWN. ) ;
#59 = DIRECTION ( 'NONE',  ( -1.000000000000000000, 0.000000000000000000, 0.000000000000000000 ) ) ;
#60 = APPLICATION_CONTEXT ( 'configuration controlled 3d designs of mechanical parts and assemblies' ) ;
#61 = DIRECTION ( 'NONE',  ( 1.000000000000000000, 0.000000000000000000, 0.000000000000000000 ) ) ;
#62 = ADVANCED_FACE ( 'NONE', ( #127 ), #139, .T. ) ;
#63 =( NAMED_UNIT ( * ) PLANE_ANGLE_UNIT ( ) SI_UNIT ( $, .RADIAN. ) );
#64 = COORDINATED_UNIVERSAL_TIME_OFFSET ( 5, 0, .BEHIND. ) ;
#65 = DATE_AND_TIME ( #51, #155 ) ;
#66 = APPROVAL_PERSON_ORGANIZATION ( #129, #162, #13 ) ;
#67 = MECHANICAL_CONTEXT ( 'NONE', #126, 'mechanical' ) ;
#68 = ORIENTED_EDGE ( 'NONE', *, *, #88, .T. ) ;
#69 = ORIENTED_EDGE ( 'NONE', *, *, #109, .T. ) ;
#70 = CIRCLE ( 'NONE', #24, 62.50000000000000000 ) ;
#71 = DIRECTION ( 'NONE',  ( 1.000000000000000000, 0.000000000000000000, -0.000000000000000000 ) ) ;
#72 = CARTESIAN_POINT ( 'NONE',  ( -62.50000000000000000, 0.000000000000000000, 0.000000000000000000 ) ) ;
#73 = PRODUCT ( 'Web Model 20161_20161', 'Web Model 20161_20161', '', ( #67 ) ) ;
#74 = DIRECTION ( 'NONE',  ( -0.000000000000000000, -0.000000000000000000, -1.000000000000000000 ) ) ;
#75 = LOCAL_TIME ( 16, 13, 13.00000000000000000, #146 ) ;
#76 = CC_DESIGN_PERSON_AND_ORGANIZATION_ASSIGNMENT ( #131, #159, ( #95 ) ) ;
#77 = CC_DESIGN_DATE_AND_TIME_ASSIGNMENT ( #78, #120, ( #82 ) ) ;
#78 = DATE_AND_TIME ( #156, #75 ) ;
#79 = PERSON ( 'UNSPECIFIED', 'UNSPECIFIED', 'UNSPECIFIED', ('UNSPECIFIED'), ('UNSPECIFIED'), ('UNSPECIFIED') ) ;
#80 = SHAPE_DEFINITION_REPRESENTATION ( #18, #14 ) ;
#81 = ADVANCED_FACE ( 'NONE', ( #153 ), #164, .T. ) ;
#82 = SECURITY_CLASSIFICATION ( '', '', #172 ) ;
#83 = EDGE_LOOP ( 'NONE', ( #154, #136 ) ) ;
#84 = CC_DESIGN_DATE_AND_TIME_ASSIGNMENT ( #65, #104, ( #95 ) ) ;
#85 = DIRECTION ( 'NONE',  ( 0.000000000000000000, 0.000000000000000000, 1.000000000000000000 ) ) ;
#86 = UNCERTAINTY_MEASURE_WITH_UNIT (LENGTH_MEASURE( 1.000000000000000082E-05 ), #22, 'distance_accuracy_value', 'NONE');
#87 = LINE ( 'NONE', #168, #124 ) ;
#88 = EDGE_CURVE ( 'NONE', #89, #45, #160, .T. ) ;
#89 = VERTEX_POINT ( 'NONE', #72 ) ;
#90 = DIRECTION ( 'NONE',  ( 1.000000000000000000, 0.000000000000000000, 0.000000000000000000 ) ) ;
#91 = EDGE_CURVE ( 'NONE', #43, #89, #112, .T. ) ;
#92 = APPROVAL_STATUS ( 'not_yet_approved' ) ;
#93 = APPROVAL_ROLE ( '' ) ;
#94 = CIRCLE ( 'NONE', #145, 62.50000000000000000 ) ;
#95 = PRODUCT_DEFINITION ( 'UNKNOWN', '', #58, #44 ) ;
#96 = PERSON_AND_ORGANIZATION ( #79, #142 ) ;
#97 = PERSON_AND_ORGANIZATION_ROLE ( 'design_supplier' ) ;
#98 = APPROVAL_PERSON_ORGANIZATION ( #147, #28, #25 ) ;
#99 = CARTESIAN_POINT ( 'NONE',  ( 0.000000000000000000, 0.000000000000000000, 3.000000000000000000 ) ) ;
#100 = CLOSED_SHELL ( 'NONE', ( #2, #62, #81, #37 ) ) ;
#101 = DIRECTION ( 'NONE',  ( -0.000000000000000000, -0.000000000000000000, -1.000000000000000000 ) ) ;
#102 = CARTESIAN_POINT ( 'NONE',  ( 0.000000000000000000, 0.000000000000000000, 3.000000000000000000 ) ) ;
#103 = CARTESIAN_POINT ( 'NONE',  ( 0.000000000000000000, 0.000000000000000000, 0.000000000000000000 ) ) ;
#104 = DATE_TIME_ROLE ( 'creation_date' ) ;
#105 = EDGE_CURVE ( 'NONE', #45, #89, #1, .T. ) ;
#106 = DATE_AND_TIME ( #157, #134 ) ;
#107 = CC_DESIGN_APPROVAL ( #21, ( #82 ) ) ;
#108 = COORDINATED_UNIVERSAL_TIME_OFFSET ( 5, 0, .BEHIND. ) ;
#109 = EDGE_CURVE ( 'NONE', #137, #45, #87, .T. ) ;
#110 = ORIENTED_EDGE ( 'NONE', *, *, #9, .F. ) ;
#111 = APPROVAL_DATE_TIME ( #26, #28 ) ;
#112 = LINE ( 'NONE', #115, #8 ) ;
#113 = AXIS2_PLACEMENT_3D ( 'NONE', #132, #144, #7 ) ;
#114 = DIRECTION ( 'NONE',  ( -1.000000000000000000, 0.000000000000000000, 0.000000000000000000 ) ) ;
#115 = CARTESIAN_POINT ( 'NONE',  ( -62.50000000000000000, 0.000000000000000000, 3.000000000000000000 ) ) ;
#116 = CC_DESIGN_PERSON_AND_ORGANIZATION_ASSIGNMENT ( #119, #42, ( #73 ) ) ;
#117 = CARTESIAN_POINT ( 'NONE',  ( 62.50000000000000000, 7.654042494670957804E-15, 3.000000000000000000 ) ) ;
#118 = AXIS2_PLACEMENT_3D ( 'NONE', #99, #85, #71 ) ;
#119 = PERSON_AND_ORGANIZATION ( #79, #142 ) ;
#120 = DATE_TIME_ROLE ( 'classification_date' ) ;
#121 =( GEOMETRIC_REPRESENTATION_CONTEXT ( 3 ) GLOBAL_UNCERTAINTY_ASSIGNED_CONTEXT ( ( #86 ) ) GLOBAL_UNIT_ASSIGNED_CONTEXT ( ( #22, #63, #39 ) ) REPRESENTATION_CONTEXT ( 'NONE', 'WORKASPACE' ) );
#122 = APPROVAL_STATUS ( 'not_yet_approved' ) ;
#123 = PERSON_AND_ORGANIZATION_ROLE ( 'classification_officer' ) ;
#124 = VECTOR ( 'NONE', #74, 1000.000000000000000 ) ;
#125 = ORIENTED_EDGE ( 'NONE', *, *, #109, .F. ) ;
#126 = APPLICATION_CONTEXT ( 'configuration controlled 3d designs of mechanical parts and assemblies' ) ;
#127 = FACE_OUTER_BOUND ( 'NONE', #17, .T. ) ;
#128 = ORIENTED_EDGE ( 'NONE', *, *, #91, .F. ) ;
#129 = PERSON_AND_ORGANIZATION ( #79, #142 ) ;
#130 = PERSON_AND_ORGANIZATION ( #79, #142 ) ;
#131 = PERSON_AND_ORGANIZATION ( #79, #142 ) ;
#132 = CARTESIAN_POINT ( 'NONE',  ( 0.000000000000000000, 0.000000000000000000, 0.000000000000000000 ) ) ;
#133 = EDGE_LOOP ( 'NONE', ( #163, #69, #141, #128 ) ) ;
#134 = LOCAL_TIME ( 16, 13, 13.00000000000000000, #55 ) ;
#135 = EDGE_LOOP ( 'NONE', ( #30, #31 ) ) ;
#136 = ORIENTED_EDGE ( 'NONE', *, *, #105, .F. ) ;
#137 = VERTEX_POINT ( 'NONE', #117 ) ;
#138 = DIRECTION ( 'NONE',  ( 0.000000000000000000, 0.000000000000000000, 1.000000000000000000 ) ) ;
#139 = CYLINDRICAL_SURFACE ( 'NONE', #151, 62.50000000000000000 ) ;
#140 = CC_DESIGN_PERSON_AND_ORGANIZATION_ASSIGNMENT ( #96, #123, ( #82 ) ) ;
#141 = ORIENTED_EDGE ( 'NONE', *, *, #105, .T. ) ;
#142 = ORGANIZATION ( 'UNSPECIFIED', 'UNSPECIFIED', '' ) ;
#143 = APPLICATION_PROTOCOL_DEFINITION ( 'international standard', 'config_control_design', 1994, #60 ) ;
#144 = DIRECTION ( 'NONE',  ( 0.000000000000000000, 0.000000000000000000, 1.000000000000000000 ) ) ;
#145 = AXIS2_PLACEMENT_3D ( 'NONE', #49, #4, #47 ) ;
#146 = COORDINATED_UNIVERSAL_TIME_OFFSET ( 5, 0, .BEHIND. ) ;
#147 = PERSON_AND_ORGANIZATION ( #79, #142 ) ;
#148 = CC_DESIGN_APPROVAL ( #28, ( #58 ) ) ;
#149 = DIRECTION ( 'NONE',  ( -0.000000000000000000, -0.000000000000000000, -1.000000000000000000 ) ) ;
#150 = CYLINDRICAL_SURFACE ( 'NONE', #171, 62.50000000000000000 ) ;
#151 = AXIS2_PLACEMENT_3D ( 'NONE', #5, #101, #59 ) ;
#152 = FACE_OUTER_BOUND ( 'NONE', #83, .T. ) ;
#153 = FACE_OUTER_BOUND ( 'NONE', #135, .T. ) ;
#154 = ORIENTED_EDGE ( 'NONE', *, *, #88, .F. ) ;
#155 = LOCAL_TIME ( 16, 13, 13.00000000000000000, #12 ) ;
#156 = CALENDAR_DATE ( 2022, 22, 3 ) ;
#157 = CALENDAR_DATE ( 2022, 22, 3 ) ;
#158 = DATE_AND_TIME ( #175, #23 ) ;
#159 = PERSON_AND_ORGANIZATION_ROLE ( 'creator' ) ;
#160 = CIRCLE ( 'NONE', #15, 62.50000000000000000 ) ;
#161 = PERSON_AND_ORGANIZATION ( #79, #142 ) ;
#162 = APPROVAL ( #92, 'UNSPECIFIED' ) ;
#163 = ORIENTED_EDGE ( 'NONE', *, *, #38, .F. ) ;
#164 = PLANE ( 'NONE',  #118 ) ;
#165 = CC_DESIGN_APPROVAL ( #162, ( #95 ) ) ;
#166 = DIRECTION ( 'NONE',  ( -0.000000000000000000, -0.000000000000000000, -1.000000000000000000 ) ) ;
#167 = CARTESIAN_POINT ( 'NONE',  ( -62.50000000000000000, 0.000000000000000000, 3.000000000000000000 ) ) ;
#168 = CARTESIAN_POINT ( 'NONE',  ( 62.50000000000000000, 7.654042494670957804E-15, 3.000000000000000000 ) ) ;
#169 = DIRECTION ( 'NONE',  ( 0.000000000000000000, 0.000000000000000000, 1.000000000000000000 ) ) ;
#170 = CC_DESIGN_PERSON_AND_ORGANIZATION_ASSIGNMENT ( #130, #174, ( #58 ) ) ;
#171 = AXIS2_PLACEMENT_3D ( 'NONE', #102, #149, #114 ) ;
#172 = SECURITY_CLASSIFICATION_LEVEL ( 'unclassified' ) ;
#173 = LOCAL_TIME ( 16, 13, 13.00000000000000000, #108 ) ;
#174 = PERSON_AND_ORGANIZATION_ROLE ( 'creator' ) ;
#175 = CALENDAR_DATE ( 2022, 22, 3 ) ;
ENDSEC;
END-ISO-10303-21;
