ISO-10303-21;
HEADER;
FILE_DESCRIPTION (( 'STEP AP203' ),
    '1' );
FILE_NAME ('Web Model 62884.STEP',
    '2017-01-31T18:26:22',
    ( '' ),
    ( '' ),
    'SwSTEP 2.0',
    'SolidWorks 2016',
    '' );
FILE_SCHEMA (( 'CONFIG_CONTROL_DESIGN' ));
ENDSEC;

DATA;
#1 = ORIENTED_EDGE ( 'NONE', *, *, #181, .T. ) ;
#2 = AXIS2_PLACEMENT_3D ( 'NONE', #175, #231, #118 ) ;
#3 = PERSON_AND_ORGANIZATION ( #217, #60 ) ;
#4 = FACE_OUTER_BOUND ( 'NONE', #142, .T. ) ;
#5 = AXIS2_PLACEMENT_3D ( 'NONE', #79, #81, #188 ) ;
#6 = COORDINATED_UNIVERSAL_TIME_OFFSET ( 5, 0, .BEHIND. ) ;
#7 = ORIENTED_EDGE ( 'NONE', *, *, #12, .T. ) ;
#8 = PRODUCT_RELATED_PRODUCT_CATEGORY ( 'detail', '', ( #195 ) ) ;
#9 = DATE_AND_TIME ( #17, #201 ) ;
#10 = CARTESIAN_POINT ( 'NONE',  ( -37.50000000000000000, -25.00000000000000000, -3.000000000000000000 ) ) ;
#11 = PLANE ( 'NONE',  #2 ) ;
#12 = EDGE_CURVE ( 'NONE', #185, #86, #124, .T. ) ;
#13 = COORDINATED_UNIVERSAL_TIME_OFFSET ( 5, 0, .BEHIND. ) ;
#14 = ORIENTED_EDGE ( 'NONE', *, *, #123, .F. ) ;
#15 = CARTESIAN_POINT ( 'NONE',  ( 37.50000000000000000, 25.00000000000000000, 0.0000000000000000000 ) ) ;
#16 = DIRECTION ( 'NONE',  ( -0.0000000000000000000, 1.000000000000000000, -0.0000000000000000000 ) ) ;
#17 = CALENDAR_DATE ( 2017, 31, 1 ) ;
#18 = PRODUCT_DEFINITION_SHAPE ( 'NONE', 'NONE',  #210 ) ;
#19 = EDGE_CURVE ( 'NONE', #58, #220, #224, .T. ) ;
#20 = EDGE_LOOP ( 'NONE', ( #219, #97, #64, #96 ) ) ;
#21 = LOCAL_TIME ( 13, 26, 22.00000000000000000, #36 ) ;
#22 = ADVANCED_FACE ( 'NONE', ( #4 ), #42, .T. ) ;
#23 = APPROVAL ( #211, 'UNSPECIFIED' ) ;
#24 = CC_DESIGN_DATE_AND_TIME_ASSIGNMENT ( #9, #49, ( #210 ) ) ;
#25 = DIRECTION ( 'NONE',  ( 1.000000000000000000, 0.0000000000000000000, -0.0000000000000000000 ) ) ;
#26 = UNCERTAINTY_MEASURE_WITH_UNIT (LENGTH_MEASURE( 1.000000000000000100E-005 ), #160, 'distance_accuracy_value', 'NONE');
#27 = EDGE_CURVE ( 'NONE', #86, #127, #46, .T. ) ;
#28 = DIRECTION ( 'NONE',  ( -1.000000000000000000, 0.0000000000000000000, 0.0000000000000000000 ) ) ;
#29 = VECTOR ( 'NONE', #214, 1000.000000000000000 ) ;
#30 = CLOSED_SHELL ( 'NONE', ( #76, #204, #94, #147, #125, #22 ) ) ;
#31 = DIRECTION ( 'NONE',  ( 0.0000000000000000000, 0.0000000000000000000, 1.000000000000000000 ) ) ;
#32 = APPLICATION_PROTOCOL_DEFINITION ( 'international standard', 'config_control_design', 1994, #83 ) ;
#33 = CARTESIAN_POINT ( 'NONE',  ( -37.50000000000000000, 25.00000000000000000, 0.0000000000000000000 ) ) ;
#34 = VECTOR ( 'NONE', #47, 1000.000000000000000 ) ;
#35 = CARTESIAN_POINT ( 'NONE',  ( -37.50000000000000000, -25.00000000000000000, -3.000000000000000000 ) ) ;
#36 = COORDINATED_UNIVERSAL_TIME_OFFSET ( 5, 0, .BEHIND. ) ;
#37 = LINE ( 'NONE', #89, #157 ) ;
#38 = CC_DESIGN_APPROVAL ( #23, ( #210 ) ) ;
#39 = LINE ( 'NONE', #150, #183 ) ;
#40 = AXIS2_PLACEMENT_3D ( 'NONE', #206, #28, #189 ) ;
#41 = ORIENTED_EDGE ( 'NONE', *, *, #162, .T. ) ;
#42 = PLANE ( 'NONE',  #5 ) ;
#43 = EDGE_CURVE ( 'NONE', #145, #185, #39, .T. ) ;
#44 = DIRECTION ( 'NONE',  ( -0.0000000000000000000, 0.0000000000000000000, -1.000000000000000000 ) ) ;
#45 = LOCAL_TIME ( 13, 26, 22.00000000000000000, #146 ) ;
#46 = LINE ( 'NONE', #151, #55 ) ;
#47 = DIRECTION ( 'NONE',  ( 1.000000000000000000, 0.0000000000000000000, 0.0000000000000000000 ) ) ;
#48 = SECURITY_CLASSIFICATION ( '', '', #71 ) ;
#49 = DATE_TIME_ROLE ( 'creation_date' ) ;
#50 = ORIENTED_EDGE ( 'NONE', *, *, #179, .F. ) ;
#51 = PRODUCT_DEFINITION_FORMATION_WITH_SPECIFIED_SOURCE ( 'ANY', '', #195, .NOT_KNOWN. ) ;
#52 = APPROVAL_DATE_TIME ( #53, #59 ) ;
#53 = DATE_AND_TIME ( #215, #75 ) ;
#54 = ORIENTED_EDGE ( 'NONE', *, *, #162, .F. ) ;
#55 = VECTOR ( 'NONE', #187, 1000.000000000000000 ) ;
#56 = VECTOR ( 'NONE', #196, 1000.000000000000000 ) ;
#57 = VECTOR ( 'NONE', #212, 1000.000000000000000 ) ;
#58 = VERTEX_POINT ( 'NONE', #10 ) ;
#59 = APPROVAL ( #194, 'UNSPECIFIED' ) ;
#60 = ORGANIZATION ( 'UNSPECIFIED', 'UNSPECIFIED', '' ) ;
#61 = CARTESIAN_POINT ( 'NONE',  ( 37.50000000000000000, 25.00000000000000000, 0.0000000000000000000 ) ) ;
#62 = CARTESIAN_POINT ( 'NONE',  ( -37.50000000000000000, 25.00000000000000000, -3.000000000000000000 ) ) ;
#63 = PERSON_AND_ORGANIZATION ( #217, #60 ) ;
#64 = ORIENTED_EDGE ( 'NONE', *, *, #19, .T. ) ;
#65 =( NAMED_UNIT ( * ) PLANE_ANGLE_UNIT ( ) SI_UNIT ( $, .RADIAN. ) );
#66 = PERSON_AND_ORGANIZATION_ROLE ( 'design_owner' ) ;
#67 = DIRECTION ( 'NONE',  ( 1.000000000000000000, 0.0000000000000000000, 0.0000000000000000000 ) ) ;
#68 = DIRECTION ( 'NONE',  ( -1.000000000000000000, -0.0000000000000000000, -0.0000000000000000000 ) ) ;
#69 = PERSON_AND_ORGANIZATION_ROLE ( 'design_supplier' ) ;
#70 = SHAPE_DEFINITION_REPRESENTATION ( #18, #192 ) ;
#71 = SECURITY_CLASSIFICATION_LEVEL ( 'unclassified' ) ;
#72 = ORIENTED_EDGE ( 'NONE', *, *, #148, .F. ) ;
#73 = CC_DESIGN_PERSON_AND_ORGANIZATION_ASSIGNMENT ( #135, #69, ( #51 ) ) ;
#74 = AXIS2_PLACEMENT_3D ( 'NONE', #113, #25, #44 ) ;
#75 = LOCAL_TIME ( 13, 26, 22.00000000000000000, #6 ) ;
#76 = ADVANCED_FACE ( 'NONE', ( #235 ), #168, .T. ) ;
#77 = LINE ( 'NONE', #15, #29 ) ;
#78 = LINE ( 'NONE', #85, #122 ) ;
#79 = CARTESIAN_POINT ( 'NONE',  ( -37.50000000000000000, -25.00000000000000000, 0.0000000000000000000 ) ) ;
#80 = CALENDAR_DATE ( 2017, 31, 1 ) ;
#81 = DIRECTION ( 'NONE',  ( -0.0000000000000000000, 0.0000000000000000000, 1.000000000000000000 ) ) ;
#82 = VERTEX_POINT ( 'NONE', #61 ) ;
#83 = APPLICATION_CONTEXT ( 'configuration controlled 3d designs of mechanical parts and assemblies' ) ;
#84 = CC_DESIGN_SECURITY_CLASSIFICATION ( #48, ( #51 ) ) ;
#85 = CARTESIAN_POINT ( 'NONE',  ( 37.50000000000000000, 25.00000000000000000, -3.000000000000000000 ) ) ;
#86 = VERTEX_POINT ( 'NONE', #154 ) ;
#87 = CARTESIAN_POINT ( 'NONE',  ( -37.50000000000000000, -25.00000000000000000, -3.000000000000000000 ) ) ;
#88 = CC_DESIGN_APPROVAL ( #59, ( #51 ) ) ;
#89 = CARTESIAN_POINT ( 'NONE',  ( 37.50000000000000000, 25.00000000000000000, -3.000000000000000000 ) ) ;
#90 = CC_DESIGN_DATE_AND_TIME_ASSIGNMENT ( #182, #237, ( #48 ) ) ;
#91 = LINE ( 'NONE', #100, #229 ) ;
#92 = PERSON_AND_ORGANIZATION_ROLE ( 'classification_officer' ) ;
#93 = ORIENTED_EDGE ( 'NONE', *, *, #27, .T. ) ;
#94 = ADVANCED_FACE ( 'NONE', ( #149 ), #111, .T. ) ;
#95 = COORDINATED_UNIVERSAL_TIME_OFFSET ( 5, 0, .BEHIND. ) ;
#96 = ORIENTED_EDGE ( 'NONE', *, *, #119, .T. ) ;
#97 = ORIENTED_EDGE ( 'NONE', *, *, #225, .F. ) ;
#98 = APPROVAL_PERSON_ORGANIZATION ( #103, #59, #140 ) ;
#99 = ORIENTED_EDGE ( 'NONE', *, *, #148, .T. ) ;
#100 = CARTESIAN_POINT ( 'NONE',  ( 37.50000000000000000, -25.00000000000000000, -3.000000000000000000 ) ) ;
#101 = AXIS2_PLACEMENT_3D ( 'NONE', #178, #106, #139 ) ;
#102 = DIRECTION ( 'NONE',  ( -0.0000000000000000000, 0.0000000000000000000, 1.000000000000000000 ) ) ;
#103 = PERSON_AND_ORGANIZATION ( #217, #60 ) ;
#104 = VECTOR ( 'NONE', #208, 1000.000000000000000 ) ;
#105 = CARTESIAN_POINT ( 'NONE',  ( -37.50000000000000000, -25.00000000000000000, 0.0000000000000000000 ) ) ;
#106 = DIRECTION ( 'NONE',  ( 0.0000000000000000000, -1.000000000000000000, 0.0000000000000000000 ) ) ;
#107 = PLANE ( 'NONE',  #141 ) ;
#108 = PERSON_AND_ORGANIZATION ( #217, #60 ) ;
#109 = LINE ( 'NONE', #197, #57 ) ;
#110 = PERSON_AND_ORGANIZATION ( #217, #60 ) ;
#111 = PLANE ( 'NONE',  #74 ) ;
#112 = LINE ( 'NONE', #105, #56 ) ;
#113 = CARTESIAN_POINT ( 'NONE',  ( 37.50000000000000000, 25.00000000000000000, -3.000000000000000000 ) ) ;
#114 = ORIENTED_EDGE ( 'NONE', *, *, #119, .F. ) ;
#115 = DIRECTION ( 'NONE',  ( 1.000000000000000000, 0.0000000000000000000, 0.0000000000000000000 ) ) ;
#116 = PLANE ( 'NONE',  #101 ) ;
#117 = CC_DESIGN_PERSON_AND_ORGANIZATION_ASSIGNMENT ( #110, #202, ( #51 ) ) ;
#118 = DIRECTION ( 'NONE',  ( 0.0000000000000000000, -0.0000000000000000000, 1.000000000000000000 ) ) ;
#119 = EDGE_CURVE ( 'NONE', #220, #227, #91, .T. ) ;
#120 = FACE_OUTER_BOUND ( 'NONE', #136, .T. ) ;
#121 = APPROVAL_ROLE ( '' ) ;
#122 = VECTOR ( 'NONE', #31, 1000.000000000000000 ) ;
#123 = EDGE_CURVE ( 'NONE', #145, #82, #78, .T. ) ;
#124 = LINE ( 'NONE', #62, #104 ) ;
#125 = ADVANCED_FACE ( 'NONE', ( #173 ), #107, .F. ) ;
#126 = PERSON_AND_ORGANIZATION ( #217, #60 ) ;
#127 = VERTEX_POINT ( 'NONE', #216 ) ;
#128 = ORIENTED_EDGE ( 'NONE', *, *, #179, .T. ) ;
#129 = APPROVAL ( #143, 'UNSPECIFIED' ) ;
#130 = DATE_AND_TIME ( #171, #45 ) ;
#131 = LINE ( 'NONE', #35, #166 ) ;
#132 = ORIENTED_EDGE ( 'NONE', *, *, #19, .F. ) ;
#133 = MECHANICAL_CONTEXT ( 'NONE', #138, 'mechanical' ) ;
#134 = APPROVAL_ROLE ( '' ) ;
#135 = PERSON_AND_ORGANIZATION ( #217, #60 ) ;
#136 = EDGE_LOOP ( 'NONE', ( #54, #14, #164, #7 ) ) ;
#137 = CARTESIAN_POINT ( 'NONE',  ( 0.0000000000000000000, 0.0000000000000000000, 0.0000000000000000000 ) ) ;
#138 = APPLICATION_CONTEXT ( 'configuration controlled 3d designs of mechanical parts and assemblies' ) ;
#139 = DIRECTION ( 'NONE',  ( 0.0000000000000000000, -0.0000000000000000000, -1.000000000000000000 ) ) ;
#140 = APPROVAL_ROLE ( '' ) ;
#141 = AXIS2_PLACEMENT_3D ( 'NONE', #87, #102, #67 ) ;
#142 = EDGE_LOOP ( 'NONE', ( #93, #186, #99, #41 ) ) ;
#143 = APPROVAL_STATUS ( 'not_yet_approved' ) ;
#144 = LINE ( 'NONE', #33, #209 ) ;
#145 = VERTEX_POINT ( 'NONE', #233 ) ;
#146 = COORDINATED_UNIVERSAL_TIME_OFFSET ( 5, 0, .BEHIND. ) ;
#147 = ADVANCED_FACE ( 'NONE', ( #205 ), #116, .T. ) ;
#148 = EDGE_CURVE ( 'NONE', #227, #82, #77, .T. ) ;
#149 = FACE_OUTER_BOUND ( 'NONE', #167, .T. ) ;
#150 = CARTESIAN_POINT ( 'NONE',  ( -37.50000000000000000, 25.00000000000000000, -3.000000000000000000 ) ) ;
#151 = CARTESIAN_POINT ( 'NONE',  ( -37.50000000000000000, 25.00000000000000000, 0.0000000000000000000 ) ) ;
#152 = APPROVAL_DATE_TIME ( #156, #23 ) ;
#153 = CARTESIAN_POINT ( 'NONE',  ( -37.50000000000000000, -25.00000000000000000, -3.000000000000000000 ) ) ;
#154 = CARTESIAN_POINT ( 'NONE',  ( -37.50000000000000000, 25.00000000000000000, 0.0000000000000000000 ) ) ;
#155 = CARTESIAN_POINT ( 'NONE',  ( -37.50000000000000000, 25.00000000000000000, -3.000000000000000000 ) ) ;
#156 = DATE_AND_TIME ( #172, #21 ) ;
#157 = VECTOR ( 'NONE', #16, 1000.000000000000000 ) ;
#158 = PERSON_AND_ORGANIZATION_ROLE ( 'creator' ) ;
#159 = DIRECTION ( 'NONE',  ( 0.0000000000000000000, 0.0000000000000000000, 1.000000000000000000 ) ) ;
#160 =( LENGTH_UNIT ( ) NAMED_UNIT ( * ) SI_UNIT ( .MILLI., .METRE. ) );
#161 = ORIENTED_EDGE ( 'NONE', *, *, #181, .F. ) ;
#162 = EDGE_CURVE ( 'NONE', #82, #86, #144, .T. ) ;
#163 = AXIS2_PLACEMENT_3D ( 'NONE', #137, #199, #115 ) ;
#164 = ORIENTED_EDGE ( 'NONE', *, *, #43, .T. ) ;
#165 = CC_DESIGN_PERSON_AND_ORGANIZATION_ASSIGNMENT ( #226, #92, ( #48 ) ) ;
#166 = VECTOR ( 'NONE', #159, 1000.000000000000000 ) ;
#167 = EDGE_LOOP ( 'NONE', ( #72, #114, #128, #232 ) ) ;
#168 = PLANE ( 'NONE',  #40 ) ;
#169 = EDGE_LOOP ( 'NONE', ( #177, #190, #1, #203 ) ) ;
#170 = DIRECTION ( 'NONE',  ( -1.000000000000000000, -0.0000000000000000000, -0.0000000000000000000 ) ) ;
#171 = CALENDAR_DATE ( 2017, 31, 1 ) ;
#172 = CALENDAR_DATE ( 2017, 31, 1 ) ;
#173 = FACE_OUTER_BOUND ( 'NONE', #193, .T. ) ;
#174 = CARTESIAN_POINT ( 'NONE',  ( 37.50000000000000000, -25.00000000000000000, -3.000000000000000000 ) ) ;
#175 = CARTESIAN_POINT ( 'NONE',  ( -37.50000000000000000, 25.00000000000000000, -3.000000000000000000 ) ) ;
#176 =( NAMED_UNIT ( * ) SI_UNIT ( $, .STERADIAN. ) SOLID_ANGLE_UNIT ( ) );
#177 = ORIENTED_EDGE ( 'NONE', *, *, #27, .F. ) ;
#178 = CARTESIAN_POINT ( 'NONE',  ( -37.50000000000000000, -25.00000000000000000, -3.000000000000000000 ) ) ;
#179 = EDGE_CURVE ( 'NONE', #220, #145, #37, .T. ) ;
#180 = MANIFOLD_SOLID_BREP ( 'Extrude1', #30 ) ;
#181 = EDGE_CURVE ( 'NONE', #185, #58, #109, .T. ) ;
#182 = DATE_AND_TIME ( #80, #222 ) ;
#183 = VECTOR ( 'NONE', #170, 1000.000000000000000 ) ;
#184 = CC_DESIGN_PERSON_AND_ORGANIZATION_ASSIGNMENT ( #126, #66, ( #195 ) ) ;
#185 = VERTEX_POINT ( 'NONE', #155 ) ;
#186 = ORIENTED_EDGE ( 'NONE', *, *, #228, .T. ) ;
#187 = DIRECTION ( 'NONE',  ( 0.0000000000000000000, -1.000000000000000000, 0.0000000000000000000 ) ) ;
#188 = DIRECTION ( 'NONE',  ( 1.000000000000000000, 0.0000000000000000000, 0.0000000000000000000 ) ) ;
#189 = DIRECTION ( 'NONE',  ( 0.0000000000000000000, 0.0000000000000000000, 1.000000000000000000 ) ) ;
#190 = ORIENTED_EDGE ( 'NONE', *, *, #12, .F. ) ;
#191 = DIRECTION ( 'NONE',  ( 0.0000000000000000000, 0.0000000000000000000, 1.000000000000000000 ) ) ;
#192 = ADVANCED_BREP_SHAPE_REPRESENTATION ( 'Web Model 62884', ( #180, #163 ), #198 ) ;
#193 = EDGE_LOOP ( 'NONE', ( #161, #207, #50, #132 ) ) ;
#194 = APPROVAL_STATUS ( 'not_yet_approved' ) ;
#195 = PRODUCT ( 'Web Model 62884', 'Web Model 62884', '', ( #133 ) ) ;
#196 = DIRECTION ( 'NONE',  ( 1.000000000000000000, 0.0000000000000000000, 0.0000000000000000000 ) ) ;
#197 = CARTESIAN_POINT ( 'NONE',  ( -37.50000000000000000, 25.00000000000000000, -3.000000000000000000 ) ) ;
#198 =( GEOMETRIC_REPRESENTATION_CONTEXT ( 3 ) GLOBAL_UNCERTAINTY_ASSIGNED_CONTEXT ( ( #26 ) ) GLOBAL_UNIT_ASSIGNED_CONTEXT ( ( #160, #65, #176 ) ) REPRESENTATION_CONTEXT ( 'NONE', 'WORKASPACE' ) );
#199 = DIRECTION ( 'NONE',  ( 0.0000000000000000000, 0.0000000000000000000, 1.000000000000000000 ) ) ;
#200 = APPROVAL_PERSON_ORGANIZATION ( #3, #129, #121 ) ;
#201 = LOCAL_TIME ( 13, 26, 22.00000000000000000, #13 ) ;
#202 = PERSON_AND_ORGANIZATION_ROLE ( 'creator' ) ;
#203 = ORIENTED_EDGE ( 'NONE', *, *, #225, .T. ) ;
#204 = ADVANCED_FACE ( 'NONE', ( #120 ), #11, .T. ) ;
#205 = FACE_OUTER_BOUND ( 'NONE', #20, .T. ) ;
#206 = CARTESIAN_POINT ( 'NONE',  ( -37.50000000000000000, 25.00000000000000000, -3.000000000000000000 ) ) ;
#207 = ORIENTED_EDGE ( 'NONE', *, *, #43, .F. ) ;
#208 = DIRECTION ( 'NONE',  ( 0.0000000000000000000, 0.0000000000000000000, 1.000000000000000000 ) ) ;
#209 = VECTOR ( 'NONE', #68, 1000.000000000000000 ) ;
#210 = PRODUCT_DEFINITION ( 'UNKNOWN', '', #51, #236 ) ;
#211 = APPROVAL_STATUS ( 'not_yet_approved' ) ;
#212 = DIRECTION ( 'NONE',  ( 0.0000000000000000000, -1.000000000000000000, 0.0000000000000000000 ) ) ;
#213 = CC_DESIGN_PERSON_AND_ORGANIZATION_ASSIGNMENT ( #108, #158, ( #210 ) ) ;
#214 = DIRECTION ( 'NONE',  ( -0.0000000000000000000, 1.000000000000000000, -0.0000000000000000000 ) ) ;
#215 = CALENDAR_DATE ( 2017, 31, 1 ) ;
#216 = CARTESIAN_POINT ( 'NONE',  ( -37.50000000000000000, -25.00000000000000000, 0.0000000000000000000 ) ) ;
#217 = PERSON ( 'UNSPECIFIED', 'UNSPECIFIED', 'UNSPECIFIED', ('UNSPECIFIED'), ('UNSPECIFIED'), ('UNSPECIFIED') ) ;
#218 = APPLICATION_PROTOCOL_DEFINITION ( 'international standard', 'config_control_design', 1994, #138 ) ;
#219 = ORIENTED_EDGE ( 'NONE', *, *, #228, .F. ) ;
#220 = VERTEX_POINT ( 'NONE', #174 ) ;
#221 = CC_DESIGN_APPROVAL ( #129, ( #48 ) ) ;
#222 = LOCAL_TIME ( 13, 26, 22.00000000000000000, #95 ) ;
#223 = APPROVAL_PERSON_ORGANIZATION ( #63, #23, #134 ) ;
#224 = LINE ( 'NONE', #153, #34 ) ;
#225 = EDGE_CURVE ( 'NONE', #58, #127, #131, .T. ) ;
#226 = PERSON_AND_ORGANIZATION ( #217, #60 ) ;
#227 = VERTEX_POINT ( 'NONE', #230 ) ;
#228 = EDGE_CURVE ( 'NONE', #127, #227, #112, .T. ) ;
#229 = VECTOR ( 'NONE', #191, 1000.000000000000000 ) ;
#230 = CARTESIAN_POINT ( 'NONE',  ( 37.50000000000000000, -25.00000000000000000, 0.0000000000000000000 ) ) ;
#231 = DIRECTION ( 'NONE',  ( 0.0000000000000000000, 1.000000000000000000, 0.0000000000000000000 ) ) ;
#232 = ORIENTED_EDGE ( 'NONE', *, *, #123, .T. ) ;
#233 = CARTESIAN_POINT ( 'NONE',  ( 37.50000000000000000, 25.00000000000000000, -3.000000000000000000 ) ) ;
#234 = APPROVAL_DATE_TIME ( #130, #129 ) ;
#235 = FACE_OUTER_BOUND ( 'NONE', #169, .T. ) ;
#236 = DESIGN_CONTEXT ( 'detailed design', #83, 'design' ) ;
#237 = DATE_TIME_ROLE ( 'classification_date' ) ;
ENDSEC;
END-ISO-10303-21;
